Nirvana Нирвана Курт Кобейн Kurt Cobain Nirvana
Нирвана
Курт Кобейн Kurt Cobain Nirvana Нирвана Курт Кобейн Kurt Cobain Nirvana
Нирвана Курт Кобейн Kurt Cobain Nirvana Нирвана Курт Кобейн Kurt Cobain
Nirvana Нирвана Курт Кобейн Kurt Cobain Nirvana Нирвана Курт Кобейн

Пост-гранж группы

Jonas

Российские гранж-группы

Crisis Dance
The Glue

Кто на сайте?

Сейчас 9 гостей онлайн.

Поиск

Главная страница Аккорды и табы Табы Nirvana "Nevermind"

Табы Nirvana "Nevermind" PDF Печать E-mail

Smells Like Teen Spirit

Main line: Riff:
2x w/o distortion.
4x with distortion + chorus)
e------------------------------------ ---1------
a------------------------------------ -1--------
d-------------3-3---------------6-6-- ----------
g--3-3-3-xxxx-3-3----6-6-6-xxxx-6-6-- ----------
b--3-3-3-xxxx-1-1----6-6-6-xxxx-4-4-- ----------
E--1-1-1-xxxx--------4-4-4-xxxx------ ----------

"Solo": 2x. . .
e-------------------------------------------------------
a--1--4--4/6-----4b6b4--2--1--2--1----------------------
d-------------1---------------------3--1--3b5b3--1--0---
g-------------------------------------------------------
b-------------------------------------------------------
E-------------------------------------------------------

. . .to 4x:
e--------------------------------
a--------------------------------
d---1-0---1-0---1-0---1p0--------
g---------------------------3----
b--------------------------------
E--------------------------------

Load up on guns, bring your friends
It's fun to lose, and to pretend
She's over bored, and self assured
I know I know, A dirty word

hello, hello, hello, hello. . .hello, hello, hello, hello,
hello, hello, hello, hello. . .hello, hello, hello, hello

With the lights out it's less dangerous
Here we are now, entertain us
I feel stupid and contagious
Here we are now, entertain us.
A mulatto, an albino, a mosquito, my libido, Yea!

I'm worse at what I do best,
and for this gift I feel blessed.
I met a group that's always been
And always will until the end.

And I forget, just why i taste
Oh yes I guess it makes me smile
I found it hard. . .Its hard to find
Oh well, whatever, nevermind

 

In Bloom

Intro:

Bb G F G# Bb G F G#
E -----------------------------------------------------------
B -----------------------------------------------------------
G -3--3-3-----------------------------3--3-3-----------------
D -3--3-3--5----3--3-3--6-------------3--3-3--5----3--3-3--6- (drum fill)
A -1--1-1--5----3--3-3--6-------------1--1-1--5----3--3-3--6-
E ---------3----1--1-1--4----4-1-4-5----------3----1--1-1--4-

Bb F# Eb B A
E --------------------------------------------------------
B ---------------------------/8-8---8\--------------------
G ---------------------------/8-8---8\--x-8--------------- (x2)
D -8-8--8\-x--\4-4-4-4-4--x--/8-8---8\--x-89-9-9-9---7--7-
A -8-8--8\-x--\4-4-4-4-4--x--/6-6---6\--x-69-9-9-9---7--7-
E -6-6--6\-x--\2-2-2-2-2--x--/6------------7-7-7-7---5--5-

Sell the kids for food
Weather changes moods

e -1---1-1-xx2---2-2-xx3---3-3----------
b -3---3-3-xx2---2-2-xx4---4-4-xx4---2--
g -3---3-3-xx3---3-3-xx3---3-3-xx4---2--
d -3---3-3-xx4---4-4-xx1---1-1-xx4---2--
a --------------------------------------
E --------------------------------------
Bb F# Eb B A
Spring is here a-gain
Re - product -ive glands AAANNNDD

Chorus:

B A Bb G Bb G
AAAAANNNDDDD he's the one who likes all our pretty songs and he
Bb G Bb G
likes to sing along, and he likes to shoot his guns,
C Eb C Eb
but he don't know what it means... Don't know what it means and I say...

We can have some more
Nature is a whore
Bruises on the fruit
Tender age in bloom

 

Come As You Are

-------------------------------
-------------------------------
-------------------------------
-------------------------------
---------0---0---------2-----2-
-0-0-1-2---2---2-2-1-0---0-0---

Come
As you are
As you were
As I want you to be
As a friend
As a friend
As an old enemy
Take your time
Hurry up
The Choice is your
Dont' be late
Take a rest
As a friend
As an old memoria
memoria
memoria
memoria

Come
Dowsed in mud
Soaked in bleach
As I want you to be
As a trend
A a friend
As an old memoria
memoria
memoria
memoria

And I swear
That I don't have a gun
No I don't have a gun
No I don't have a gun

memoria
memoria
memoria
memoria {don't have a gun}

And I swear
That I don't have a gun
No I don't have a gun
No I don't have a gun
No I don't have a gun
No i don't have a gun

memoria
memoria

 

Breed

Intro:
e|---------------------------------|---------------------------------|
B|---------------------------------|---------------------------------|
G|-*-----------------------------*-|-*-------------------------------|
B|-*--4--4--4--4--7-----------2--*-|-*--4--4--4--4--7----------------|
A|----4--4--4--4--7-Bend------2----|----4--4--4--4--7-Bend-----------|
E|----2--2--0--2--5-----------0----|----2--2--0--2--5-----------0----|

Riff 1:
e|---------------------------------|---------------------------------|
B|---------------------------------|---------------------------------|
G|-*-------------------------------|-------------------------------*-|
B|-*--4--4-------------------------|----4--4-----------------------*-|
A|----4--4-------------------------|----4--4-------------------------|
E|----2--2--0--2--5-Bend------0----|----2--2--0--2--5-Bend------0----|

Verse:
e|-----------------------------|-----|-----|-------------------------|
B|-----------------------------|-----|-----|-------------------------|
G|-----------------------------|-----|-----|-------------------------|
B|---11-11-11-11--11-11-11-11--|--%--|--%--|--11-11-11---------------|
A|---9--9--9--9---9--9--9--9---|-----|-----|--9--9--9--9-Bend--9-7---|
E|-----------------------------|-----|-----|-------------------------|

e|-----------------------------|
B|-----------------------------|
G|-----------------------------|
B|----4-4-4-4---4-4-4-0--------|
A|----4-4-4-4---4-4-4-1--------|
E|----2-2-2-2---2-2-2----------|

I don't care, I don't care, I don't care, I don't care, I don't care
Care if I'm old

I don't mind, I don't mind, I don't mind, I don't mind, I don't mind
If I don't have a mind

Get away, get away, get away, get away, get away, get away, get away
Way from your home

I'm afraid, I'm afraid, I'm afraid, I'm afraid, I'm afraid, I'm afraid
Of a ghost

Chorus:

D A C5 B5
e|----2--2--2----------------------|---------------------------------|
B|----3--3--3--X--2------2--X------|---------------------------------|
G|----2--2--2--X--2------2--X------|---5--5--5--X--4------4--X-------|
B|----0--0--0--X--2------2--X------|---5--5--5--X--4------4--X-------|
A|---------------------------------|---3--3--3--X--2------2--X-------|
E|---------------------------------|---------------------------------|

Even if you have
Even if you need
I don't mean to stare
We don't have to breed
We could plant a house
We could build a tree
I don't even care
We could have all three

She said (with Riff 1)

 

Lithium

(tune down one *full* step, to play along w/ the album)

E5 G#5 C#5 A5 C5 D5
e-----------------------------------------------------------------
a-----------------------------------------------------------------
d---------------------------6--x--------7--------------------7----
g---------------------------6--x------7--------5--5--5s7--7--7----
b---2-----------6--------4----------5----------3--3--3s5--5--5--0-
E---0--x--0--4-----x--0----------0---------0----------------------
I'm so happy 'cause today I've found my friends,

B5 D5
e-------------------------
a-------------------------
d------------------7------
g-4--4--4--4s7--7--7------
b-2--2--2--2s5--5--5---0--
E-------------------------
they're in my head. . .

I'm so ugly but that's ok, 'cause so are you, we've broke our mirrors
Sunday morning is everyday for all I care and I'm not scared
Light my candles in a daze 'cause I've found god

I'm so lonely and that's ok, I shaved my head, and I'm not sad
And just maybe I'm to blame for all I've heard, and I'm not sure
I'm so excited I can't wait to meet you there, and I dont' care
I'm so horny but that's ok, my will is good

A5 C5 A5 C5 D5 C5 A5 C5 A5
e--------------------------------------------------------------------
a--------------------------------------------------------------------
d--2-----------5---5------2---2-----5-s-7-s-5------2---2----5---5----
g--2-----------5---5------2---2-----5-s-7-s-5------2---2----3---3----
b--0---0---0---3---3---0--0---0--0--3-s-5-s-3------0---0----3---3--0-
E-----------------------------------------------3--------------------
I like you I'm not gonna crack I miss you

A5 C5
e---------------------------
a---------------------------
d--2---2-----5---5---5------
g--2---2-----5---5---5------
b--0---0--0--3---3---3----0-
E---------------------------
I'm not gonna crack

 

Polly

Verse:

Em G5 D C
e|---------------------------------|----2--2-------------------------|
B|---------------------------------|----3--3-----5--------5----------|
G|----0--------0--0-----------0----|----2--2--X--5--------5--5--0----|
B|----2--------2--0--5--5-----0----|----0--0--X--5--------5--5--0----|
A|----2--------2--0--5--5--X-------|----------X--3--------3--3-------|
E|----0--------0-----3--3--X-------|---------------------------------|

Polly Wants a Cracker
I think I should get off her first
I think she wants some water
To put out the blow torch

Chorus:

D C G Bb5 D
e|----2----------------------------|---------------------------2-----|
B|----3------X--5-------5--5-------|---------------------------3-----|
G|----2------X--5-------5--5--0----|-----4--4--X--3------3--3--2-----|
B|----0------X--5-------5--5--0----|-----5--5--X--3------3--3--0-----|
A|-----------X--3-------3--3--0----|-----5--5--X--1------1--1--------|
E|---------------------------------|-----3--3------------------------|

It isn't me
We have some seed
Let me clip
Your dirty wings
Let me take a ride
Don't hurt yourself
I want some help
To please myself
I've got some rope
You have been told
I promise you
I've been true
Let me take a ride
Don't hurt yourself
I want some help
To please myself

Polly wants a cracker
Maybe she would like more food
She asks me to untie her
A chase would be nice for a few

Polly said...
|----------------------------------------------
|----------------------------------------------
|----------------------------------------------
|--------------------0--0--0-------------------
|--------------------------------3---3--3--3---
|--0-----3--3--3-------------------------------

Polly says her back hurts
And she's just as bored as me
She caught me off my guard
It amazes me, the will of instinct

 

Territorial Pissings

(E bar chords on frets 5, 13 and 10)

A5 F5 D5 A5 F5 D5
When I was an alien, cultures weren't opinions.

A5 F5 D5
Gotta find a way, to find a way, I'd better wait.

Never met a wise man, if so it's a woman

Bridge:

||
E |----------------|---------------
B |----------------|--------7------
G |----------------|---------7-----
D |-----7-------7--|------7---7----
A |-----7-------7--|------7----7---
E |-5-5-----5-5----|--5-5----------

Just because you're paranoid, don't mean they're not after you

 

Drain You

A C# F# B A C# F# B
One baby to another said I'm lucky to have met you...
I don't care what you think unless it is about me
It is now my responsibility to completely drain you
A travel through a tube and end up in your infection

D B
Chew your meat for you
pass it back and forth
In a passionate kiss,
from my mouth to yours

A5 G5 F#5
because I like you.

With eyes so dialted I've become your pupil
You've taught me everything with a poison apple
The water is so yellow, I'm a healthy student
Indebted and so grateful. Vacuum out the fluids.

B
You're my vitamins
A5 G5 F#sus4 F#5
because I like you

 

Lounge Act

A- Intro

B G C
1
2 4 4 4 0 5 5 5
3 2 4 4 4 0 0 5 5 5 2
4 2 4 4 4 0 0 5 5 5 2
5 0 2 2 2 3 3 3 2
6 3 3

B G C *B
1
2 4 0 5 5 5 4
3 4 4 4 4 0 0 5 5 5 2 4 4
4 4 4 4 4 0 0 5 5 5 2 4 4
5 2 2 2 2 2 3 3 3 2 2 2 2
6 3 3

G C B G
1
2 0 5 5 5 4 0
3 4 4 0 0 5 5 5 2 4 4 4 4 0 0
4 4 4 0 0 5 5 5 2 4 4 4 4 0 0
5 2 2 3 3 3 2 2 2 2 2 2
6 3 3 3 3

C Bm G C
1
2 5 5 5 3 5 5 5
3 5 5 5 2 4 4 4 4 0 0 5 5 5 2
4 5 5 5 2 4 4 4 4 0 0 5 5 5 2
5 3 3 3 2 2 2 2 2 2 3 3 3 2
6 3 3

Bm G C
1
2 3 0 5
3 4 4 4 4 0 0 0 0 5
4 4 4 4 4 0 0 0 0 5
5 2 2 2 2 2 3
6 3 3 3

Chorus
A5 E A D5 G E A
1
2 2 2 2 2 0 3 0 0 0 0 2 2
3 2 2 1 2 2 2 0 2 0 0 0 0 1 2
4 2 2 2 2 2 2 0 0 0 0 0 2 2
5 0 0 2 0 0 0 0 2 0
6 0 3 0

D5 G E A
1
2 2 2 0 3 0 0 0 0 2 2 2 2 0 3 0 0 0 0
3 2 2 0 2 0 0 0 0 1 2 2 2 0 2 0 0 0 0
4 2 2 0 0 0 0 0 2 2 2 2 0 0 0 0 0
5 0 0 0 2 0 0 0 0
6 3 0 3

D5 G E A
1
2 2 2 2 2 0 3 0 0 0 0 2 2 2 2 0
3 1 2 2 2 0 2 0 0 0 0 1 2 2 2 0
4 2 2 2 2 0 0 0 0 0 2 2 2 2
5 2 0 0 0 0 2 0 0 0
6 0 3 0

D5 G E A D5 G
1
2 3 0 0 0 0 2 2 2 2 0 3 0 0 0
3 2 0 0 0 0 1 2 2 2 0 2 0 0 0
4 0 0 0 0 0 2 2 2 2 0 0 0 0
5 0 2 0 0 0 0
6 3 0 3

A G5 A G#(5b) G5
1
2 2 0 0 2
3 2 0 0 2 0 0
4 2 0 2 0 0 0 0
5 0 3 3 3 0 3 0
6 4 4 3 3 0

1
2 2
3 0 0 2
4 0 0 0 2 repeat until end turns
5 3 0 into a gradual dive. Pitch
6 3 3 3 shift created by slowing down
tape

this really sucks but..I hope it's better than nothing..I wasn't
listininmg to the song and I didn't have my guitar with so you'll have to
get the timing yourself any corrections comments or questions are welcome
Jamm L7

 

Stay Away

Tune the guitar down a half step

It starts out with drums and bass. Then the guitar enters with (all power
chords):

D5 B5 F5 C5 C5 C#5 (repeat 4 times)

Then the verses come, mostly drums and bass, but during "I don't know why!"
Kurt plays:

E)--------------------------
B)--------------------------
G)-----4/5-5-5-5(bend)-5----
D)--------------------------
A)--------------------------
E)--------------------------

For the chorus its just the intro over and over again.

Bridge:

D5 F5

At the end of the bridge, during the "I don't know why" instead of the normal
thing, he plays:

E)--------------------------
B)--------------------------
G)-----3--3--3--3(bend)--3--
D)--------------------------
A)--------------------------
E)--------------------------

Then its played normally till the guitar shuts up awhile for the bass and
drums, then right before he screams he playes all of the A, D, and G strings
open, then he screams and goes into the chorus.

thats it.

 

On A Plain

h = hammer on
p = pull off

This is undoubtedly the hardest song to figure out on the album and it's
still a pain in the arse when you know how to play it. This transcription is
taken from the Nevermind tablature book thing.

Intro (w/distortion)
B(b5)/D# (fdbk pitch D#)
----------------|---------------------------
----------------|----------------------h12--
--10------------|------------------h10------
---9------------|----------------h9---------
----------------|---------------------------
--11------------|--10h11p10h11-------------

play that second part three times and hammer-on all notes with the fretting
hand.

Verse
D G F E5 F5 E5
--2--------------------------------------------------
--3---3-------0----0---------------------------------
--2---2---0---0----0---2---2----2----------------0--
--0---0---0---0--------3---3----3----------------0--
--0--------------------4---3----3---2--2--3--2------
--------------3------------1----1---0--0--1--0------

it goes like this (dashes included to line up some syllables with notes):
D G F E5 F5 E5
I'll start this off with-out an-y words...

then the "I love myself line...":
D C5 B5 A5
--2---------------------------------------------
--3---3-----------------------------------------
--2---2--0--5--5--5--5--4---4--0--2--2--2--0--
--0---0--0--5--5--5--5--4---4--0--2--2--2--0--
------------3--3--3--3--2---2-----0--0--0------
------------------------------------------------

D C5 B5 A5
I love myself better than you...

So the verse follows the first rythym figure twice, then the second figure
for the refrain, then back to the first figure for the "I know it's wrong..."
line.
D G F E5 F5 E5
D G F E5 F5 E5
D C5 B5 A5
D G F E5 F5 E5

As the chorus starts, play this figure and repeat it for the chorus:
D5 G5 Bb6sus2
--------------------------------------------------
--3---3-----3---3----------1--1--1--1--1--1------
--2---2-----0---0----------0--0--0--0--0--0--0---
--0---0--0--0---0--0----3--3--3--3--3--3--3--0--
---------0---------0--0h1--1--1--1--1--1--1------
------------3---3---------------------------------

D5 G5 Bb6sus2 D5 G5 Bb6sus2
I'm on a plain I can't complain

The bridge is the only easy part:
F5 (133xxx) E5 (022xxx) A5 (x022xx) G5 (355xxx)

 

Something In The Way

D|---------------------------------|
A|---------------------------------|
F|---------------------------------|
C|---4-----4---4-4-0-----0---0-0---|
G|---4-----4---4-4-0-----0---0-0---|
C|---4-----4---4-4-0---------0-----|

Underneath the bridge
The tarp has sprung a leak
And the animals I've trapped
Have all become my pets
And I'm living off of grass
And the drippings from the ceiling
But it's ok to eat fish
Cause they haven't any feelings

e|--------------------------------------|
B|-------------------------3-3----3-3---|
G|-------------------------2-2----2-2---|
B|---4-----4-4----4-4-0----0-0----0-0---|
A|---4-----4-4----4-4-0----0-0----0-0---|
E|---4-----4-4----4-4-0-----------------|

Something in the way, Mmmm...
Something in the way, yeah, Mmmm...

 

Endless Nameless

Intro:
3: 0 0 0 0 0 0 0 0
4: 0 0 0 0 0 0 0 0
5: 0 0 0 0 0 0 0 0
6: 0 0 0 0 0 0 0 0
PM----------|
play 4x then:
)~~~~~
1: 14) 14
2: 14 14
3 0 0 0 0 0 0 0 0 0 0 0 0 0 0 0
4: x/x 0 0 0 0 x/x 0 0 0 0 0 0 0 0 0 0 0
5: 0 0 0 0 0 0 0 0 0 0 0 0 0 0 0
6: 0 0 0 0 0 0 0 0 0 0 0 0 0 0 0
PM----| PM----| PM----------|

)~~~~~ )~~~~~
1: 13) 13 15) 15
2: 13 13 15 15
3: 0 0 0 0 0 0 0 0 0 0 0 0 0 0
4: 0 0 0 0 0 0 0 0 0 0 0 0 0 0
5: 0 0 0 0 0 0 0 0 0 0 0 0 0 0
6: 0 0 0 0 0 0 0 0 0 0 0 0 0 0
PM----------| PM----------|

)~~~~~~~~~~~~
1: 16)
2: 16

Verse:
) ) ) )
1: 14) 12) 12) 15)
2: 14 12 12 15
3: 0 0 0 0 0 0 0 0 0 0 0 0 0 0 0 0
4: 0 0 0 0 0 0 0 0 0 0 0 0 0 0 0 0
5: 0 0 0 0 0 0 0 0 0 0 0 0 0 0 0 0
6: 0 0 0 0 0 0 0 0 0 0 0 0 0 0 0 0
) ) ) )
1: 13) 11) 14) 14)
2: 13 11 14 14
3: 0 0 0 0 0 0 0 0 0 0 0 0 0 0 0 0
4: 0 0 0 0 0 0 0 0 0 0 0 0 0 0 0 0
5: 0 0 0 0 0 0 0 0 0 0 0 0 0 0 0 0
6: 0 0 0 0 0 0 0 0 0 0 0 0 0 0 0 0

Chorus:
2: 1
3: 1 1 1 1 1 1 1
4:
5: 3 3 3 2 2 2 3 3 3 2 2 2

Outro:
1: @
2: @
3: @ *
4: @
5: @
6: @
(same as RFUS...it's just noise and impossible to tab)

 

Оставлять комментарии могут только зарегистрированные пользователи.

Тусовка на Kurt Cobain [ru]

Форум* | Гостевуха

* Людям с тонкой душевной организацией, легко ранимым, воспринимающим все на свой счет, с отсутствием чувства юмора и самоиронии - НЕ РЕКОМЕНДУЕТСЯ!

Качаем c FTP!

Качаем альбомы, бутлеги и видео Nirvana с FTP сервера. Для подключения используйте бесплатный FTP-клиент FileZilla.

Данные для доступа:
Сервер: ftp://nirvanaall.ru
Логин: kurt
Пароль: 4ever
Пароль на архив: nirvanaall.ru

Рассылка новостей

На страницу рассылки

Подписаться

Работа над ошибками

Если вы обнаружили на сайте ошибку или недостоверную информацию, то выделите ошибочное слово или фразу и нажмите Ctrl+Enter. Спасибо за участие!

О сайте Kurt Cobain [ru]

Концепция | Контакты | Баннеры

Объявления

Для ссылок.
Яндекс цитирования хостинг от .masterhost
Rambler's Top100