Nirvana Нирвана Курт Кобейн Kurt Cobain Nirvana
Нирвана
Курт Кобейн Kurt Cobain Nirvana Нирвана Курт Кобейн Kurt Cobain Nirvana
Нирвана Курт Кобейн Kurt Cobain Nirvana Нирвана Курт Кобейн Kurt Cobain
Nirvana Нирвана Курт Кобейн Kurt Cobain Nirvana Нирвана Курт Кобейн

Пост-гранж группы

Jonas

Российские гранж-группы

Crisis Dance
The Glue

Кто на сайте?

Сейчас 73 гостей онлайн.

Поиск

Главная страница Аккорды и табы Nevermind Табы Nirvana "Nevermind" Вер. 2

Табы Nirvana "Nevermind" Вер. 2 PDF Печать E-mail

Note: Majority of these tabulatures are gathered from my previous attemps at many of the
songs on this album. After seeing the other nevermind tab on the web which are hastily thrown together and missing songs plus many riffs and solos, i thought it wouldn't be
to much trouble to make this paticular piece. Plus, if anyone can tell me were I can download songs off the yet to be released box set , that would make me kinda happy.
Enjoy.

If you have any questions, comments or complaints email me: Этот e-mail адрес защищен от спам-ботов, для его просмотра у Вас должен быть включен Javascript

 

Smells Like Teen Spirit

Intro Clean:
e:---------------------------------------------------------------------------|
B:---------------------------------------------------------------------------|
G:--3-33-xx-3-33-0-----------------------------------------------------------|
D:--3-33-xx-3-33-0--6-66-xxxx-6-66--{x2} ------------------------------------|
A:--3-33-xx-1-11-0--6-66-xxxx-6-66-------------------------------------------|
E:--1-11------------4-44-xxxx-4-44-------------------------------------------|

Distortion 1:
e:---------------------------------------------------------------------------|
B:---------------------------------------------------------------------------|
G:--------xxxx-33-0------------66-0------------------------------------------|
D:---3-33-xxxx-33-0--6-66-xxxx-66-0--[x4]------------------------------------|
A:---3-33-xxxx-11-0--6-66-xxxx-44-0------------------------------------------|
E:---1-11------------4-44-xxxx-----------------------------------------------|

verse: hello... hello...
e:----------1>let-ring-----------1>twice-as-fast-----------------------------|
B:-------1--------------------1----------------------------------------------|
G:---------------------------------------------------------------------------|
D:---------------------------------------------------------------------------|
A:---------------------------------------------------------------------------|
E:---------------------------------------------------------------------------|

Chorus[repeat Distotion Intro x6 then...
e:---------------------------------------------------------------------------|
B:---------------------------------------------------------------------------|
G:-------------------------------------------------3[bend-1/4steps]----------|
D:----------------------------------------------33-----------------------33--|
A:-----------------------------------------3-33-11------------------3-33-114-|
E:-----------------------------------------1-11---------------------1-11---6-|

Solo:
e:---------1-----------------------------------------------------------------|
B:-----1-4------4-4[1/4bend]-2-1-2-1-----------------------------------------|
G:-----------1-----------------------3-1-3-3[1/4bend]-1-0--------------------|
D:---------------------------------------------------------------------------|
A:--------------------------------------------------------[play-this-part-2x-|
E:---------------------------------------------------------------------------|

2nd part:
e:-------------------------------|
B:-------------------------------|
G:---------1-0-1-0-1-0-1-0-1--0--|
D:------------------------------3|
A:-------------------------------|
E:-------------------------------|

 

In Bloom

Riff A [intro]
e:---------------------------------------------------------------------------|
B:---------------------------------------------------------------------------|
G:--3-33---------------------------------------------------------------------|
D:--3-33--5--55-555--3-333/4-44-44---[x2]------------------------------------|
A:--1-11--5--55-555--3-333/4-44-44-------------------------------------------|
E:--------3--33-333--1-111/6-66-66-------------------------------------------|

Riff B[intro continued]
e:---------------------------------------------------------------------------|
B:---------------------------------------------------------------------------|
G:-33333-3----------88888-8-4444-2222----------------------------------------|
D:-33333-3-44444-4--88888-8-4444-2222----------------------------------------|
A:-11111-1-44444-4--66666-6-2222-0000----------------------------------------|
E:---------22222-2-----------------------------------------------------------|

Verses:
e:---------------------------------------------------------------------------|
B:---------------------------------------------------------------------------|
G:---------------------------------------------------------------------------|
D:------------------11111-1------------[x2,then-play-riff-b-clean]-----------|
A:--11111-1-----------------2222-0000----------------------------------------|
E:----------22222-2----------------------------------------------------------|

Chorus: A# G C D# e:---------------------------------------------------------------------------|
B:---------------------------------------------------------------------------|
G:-----------3---------------------------------------------------------------|
D:-----------3----5-----5---8----listen-to-song-for-strum-pattern------------|
A:-----------1----5-----3---6------------------------------------------------|
E:----------------3----------------------------------------------------------|

Solo:
e:---11)b(1step>-9>b<1step>--------------------------------------------------|
B:---------------------------------------------------------------------------|
G:--------------------------6~-6-8-6-8b(1/2step>-------6-8-8b(1/2step>--6-8b-|
D:-----------------------------------------------8-6-8-----------------------|
A:---------------------------------------------------------------------------|
E:---------------------------------------------------------------------------|

e:-------------14b[2stp}-----------------------------------------------------|
B:-----------------------------------------------16-------------8---8//////--|
G:--8-6-8-6-8------------10-12-10-12-13-12-13-12/15b[1stp]----6---6////////--|
D:---------------------------------------------------------------------------|
A:---------------------------------------------------------------------------|
E:---------------------------------------------------------------------------|

end on a#

 

Come As You Are

e:---------------------------------------------------------------------------|
B:---------------------------------------------------------------------------|
G:---------------------------------------------------------------------------|
D:---------------------------------------------------------------------------|
A:----------------0-----0--------------2--------2----------------------------|
E:-[0]--0--1---2-----2----2--2--1---0----0---0-------------------------------|

Pre Chorus:F#sus4 A5
e:---------------------------------------------------------------------------|
B:---------------------------------------------------------------------------|
G:-----------4--4--4--4--4----2--2--2--2--2--2--2----------------------------|
D:-----------4--4--4--4--4----2--2--2--2--2--2--2----------------------------|
A:-----------4--4--4--4--4----0--0--0--0--0--0--0----------------------------|
E:-----------2--2--2--2--2---------------------------------------------------|

Chorus:B5 Dadd9
e:---------------------------5--5--5--5--5--5--5-----------------------------|
B:---------------------------7--7--7--7--7--7--7-----------------------------|
G:-------4--4--4--4--4--4----7--7--7--7--7--7--7-----------------------------|
D:-------4--4--4--4--4--4----7--7--7--7--7--7--7-----------------------------|
A:-------2--2--2--2--2--2----5--5--5--5--5--5--5-----------------------------|
E:---------------------------------------------------------------------------|

Solo:
e:----------------------------------------------------------|
B:----------------------------------------------------------|
G:-6--9--11--6--9--11--9--6--9--11--13--13--13-11--9--6-[x4]|
D:----------------------------------------------------------|
A:----------------------------------------------------------|
E:----------------------------------------------------------|

 

Breed

Intro:
e:---------------------------------------------------------------------------|
B:---------------------------------------------------------------------------|
G:---------------b-----------------------------------------------------------|
D:--4--4--4--4--7e--2--------------------------------------------------------|
A:--4--4--4--4--7n--2--------------------------------------------------------|
E:--2--2--0--2--5d--0--------------------------------------------------------|

Verses:
e:---------------------------------------------------------------------------|
B:---------------------------------------------------------------------------|
G:--------11-11-11-11-11-----------------------------------------------------|
D:--------11-11-11-11-11-----------------------------------------------------|
A:---------9--9--9--9--9-----------------------------------------------------|
E:---------------------------------------------------------------------------|

Chourus:
e:---------------------------------------------------------------------------|
B:---------------------------------------------------------------------------|
G:---------7--7--7--x---------5--5--5--x--4--4-------------------------------|
D:---------7--7--7--x--7--7---5--5--5--x--4--4-------------------------------|
A:---------5--5--5--x--7--7---3--3--3--x--2--2-------------------------------|
E:---------------------5--5--------------------------------------------------|

Solo:
e:------------------------|---------|-------------|---------|
B:------------------------|---------|-------------|---------|
G:----11------------------|-14------|--13--12--12-|-17------|
D:--------[x13]--10--8--9-|----[x13]|-------------|----[x33]|
A:-----9------------------|-12------|--11--10--10-|-15------|
E:------------------------|---------|-------------|---------|

Solo Continued:
e:-----------------------------------|--------|----------------------------|
B:-----------------------------------|--------|----------------------------|
G:-18--16--15--14--------------------|-19-----|--20--20--21--22--22--22--22|
D:-----------------------------------|----[x8]|----------------------------|
A:-16--14--13--12--------------------|-17-----|--18--18--19--20--20--20--20|
E:-----------------------------------|--------|----------------------------|

 

Lithium

Main Riff,Intro,Verses:
e:---------------------------------------------------------------------------|
B:---------------------------------------------------------------------------|
G:------------------6--------------------------------------------------------|
D:------------------6--------7-----5--5--5--7--7--7--7--4--4--4--7--7--7--7--|
A:------------6--4--------7--------3--3--3--5--5--5--5--2--2--2--5--5--5--5--|
E:--0--x0--4-----------5--------0--------------------------------------------|

Chorus:
e:---------------------------------------------------------------------------|
B:---------------------------------------------------------------------------|
G:------------6--6--------------5--5--5--5--7--7--7--7--4--4--4--4--7--7--7-7|
D:-2-2--6--6--6--6--7--7--7--7--5--5--5--5--7--7--7--7--4--4--4--4--7--7--7-7|
A:-2-2--6--6--4--4--7--7--7--7--3--3--3--3--5--5--5--5--2--2--2--2--5--5--5-5|
E:-0x0--4--4--------5--5--5--5-----------------------------------------------|

Bridge:
e:---------------------------------------------------------------------------|
B:---------------------------------------------------------------------------|
G:-----------5--5--5-----------5--5--5--5------------------------------------|
D:--7--7--7--5--5--5--7--7--7--5--5--5--5--{repeat-As-necesary]--------------|
A:--7--7--7--3--3--3--7--7--7--3--3--3--3------------------------------------|
E:--5--5--5-----------5--5--5------------------------------------------------|

Bridge 2:
e:-----------------------------------------------|
B:-----------------------------------------------|
G:-----------------------------------------------|
D:-7--7--7--7--7--7--7--7--4--4--4--4--4--4------|
A:-5--5--5--5--5--5--5--5--2--2--2--2--2--2-----2|
E:-------------------------------------------3--0|

 

Polly

Riff A:
e:---------------------------------------------------------------------------|
B:---------------------------------------------------------------------------|
G:---------------------------------------------------------------------------|
D:------------------7--7--7--5--5--5--5--------------------------------------|
A:--2------5--5-----5--5--5-/3--3--3--3--------------------------------------|
E:--0--xx--3--3--x-----------------------------------------------------------|

Riff B:
e:---------------------------------------------------|---|
B:---------------------------------------------------|---|
G:---------------------------------------------------|-4-|
D:--------7--7--7--5--5--5--5------------------------|-4-|
A:--------5--5--5--3--3--3--3--5--5--5---8--8--8--8--|-2-|
E:-----------------------------3--3--3---6--6--6--6--|---|

 

Territorial Pissings

Intro, verse, chorus:
e:---------------------------------------------------------------------------|
B:---------------------------------------------------------------------------|
G:--------------------------10-10-10-10-10-10-10-10--7--7--7--7--7--7--7--7--|
D:--7--7--7--7--7--7--7--7--10-10-10-10-10-10-10-10--7--7--7--7--7--7--7--7--|
A:--7--7--7--7--7--7--7--7--8--8--8--8--8--8--8--8---5--5--5--5--5--5--5--5--|
E:--5--5--5--5--5--5--5--5---------------------------------------------------|

e:------------------------|
B:------------------------|
G:7--7--7--7--7--7--7--7--|
D:7--7--7--7--7--7--7--7--|
A:5--5--5--5--5--5--5--5--|
E:------------------------|

Bridge:
e:---------------------------------------------------------------------------|
B:---------------------------------------------------------------------------|
G:---------------------------------------------------------------------------|
D:---------------------------------------------------------------------------|
A:--------------7--------7--------7--------7--------7--------7--------7------|
E:--------5--5--5--5--5--5--5--5--5--5--5--5--5--5--5--5--5--5--5--5--5--5--5|

e:---------------------------------------------------------------------------|
B:-------------------------------------------------------------------------7-|
G:-------------------------------------------------------------------------7-|
D:-------------------------------------------------------------------------7-|
A:--7--------7--------7--------7--------7--------7--------7--------7---------|
E:--5--5--5--5--5--5--5--5--5--5--5--5--5--5--5--5--5--5--5--5--5--5--5--5-5-|

 

Drain You

Intro/Verse
e:---------------------------------------------------------------------------|
B:-----------8--8-----------6--6---------------------------------------------|
G:--8--8--8--8--8--5--5--5--6--6---------------------------------------------|
D:--9--9--9--8--8--6--6--6--6--6---------------------------------------------|
A:--9--9--9--6--6--6--6--6--4--4---------------------------------------------|
E:--7--7--7--------4--4--4---------------------------------------------------|

e:-------------------------------------------------------------------|
B:-------------------------------------------------------------------|
G:--------------6--6--6--6--6--6--6----------------------------------|
D:--2--2--2--2--6--6--6--6--6--6--6----------------------------------|
A:--2--2--2--2--4--4--4--4--4--4--4----------------------------------|
E:--0--0--0--0-------------------------------------------------------|

e:-----------------------------------------------------------|
B:-----------------4--5--2--3--4--5--6--7--8--10--14--16--18-|
G:--!6!--[x12]-----------------------------------------------|
D:-----------------------------------------------------------|
A:-----------------------------------------------------------|
E:-----------------------------------------------------------|

 

Lounge Act

Intro,Verses:
e:---------------------------------------------------------------------------|
B:---------------------------------------------------------------------------|
G:-4--4--4--4--4--4--4--4--4--5--5--5--5-------------------------------------|
D:-4--4--4--4--4--5--5--5--5--5--5--5--5-------------------------------------|
A:-2--2--2--2--2--5--5--5--5--3--3--3--3-------------------------------------|
E:----------------3--3--3--3-------------------------------------------------|

Chorus:
e:---------------------------------------------------------|
B:---------------------------------------------------------|
G:-----2--2--2--2--7--7------------------2-----------------|
D:--2--2--2--2--2--7--7--5--5--5---{x4]--2----6--5--5--5--5|
A:--2--0--0--0--0--5--5--5--5--5---------0----6--5--5--5--5|
E:--0--------------------3--3--3--------------4--3--3--3--3|

 

Stay Away

Intro/Chorus
e:--------------------------------------------------|
B:--------------------------------------------------|
G:--------------------------------------------------|
D:--7--7--4--4--4--4--------5--5--5--5--5-----------|
A:--5--5--2--2--2--2--3--3--3--3--3--3--3-----------|
E:--------------------1--1--------------------------|

Verses:
e:----------------|
B:----------------|
G:----------------|
D:----------------|
A:----------------|
E:--4--5--5--5--5b|

 

On A Plain

Intro:
----------------|---------------------------
----------------|----------------------h12--
--10------------|------------------h10------
---9------------|----------------h9---------
----------------|---------------------------
--11------------|--10h11p10h11--------------

Vreses:
D G F E5 F5 E5

Bridge:
D C5 B5 A5

Chorus:
D5 G5 Bb6sus2
--------------------------------------------------
--3---3--3--3---3-------1--1--1--1--1--1--1--0---
--2---2--2--0---0--0----0--0--0--0--0--0--0--0---
--0---0--0--0---0--0----3--3--3--3--3--3--3--0--
------------x---x--0----1--1--1--1--1--1--1------
------------3---3---------------------------------

Interlude (or whatever you want to call it):

F5 E5 A5 G5

 

Something In The Way

Verses:
e:---------------------------------------------------------------------------|
B:---------------------------------------------------------------------------|
G:---------------------------------------------------------------------------|
D:--4--4--4--4--4--0--0--0--0--0---------------------------------------------|
A:--4--4--4--4--4--0--0--0--0--0---------------------------------------------|
E:--4--4--4--4--4--0--0--0--0--0---------------------------------------------|

Chorus:
e:------------------------------------------------------|
B:--------------------3--3--3--3--3--3------------------|
G:--------------------2--2--2--2--2--2------------------|
D:--4--4--4--4--4--4--0--0--0--0--0--0------------------|
A:--4--4--4--4--4--4--0--0--0--0--0--0------------------|
E:--4--4--4--4--4--4------------------------------------|

 

Оставлять комментарии могут только зарегистрированные пользователи.

Тусовка на Kurt Cobain [ru]

Форум* | Гостевуха

* Людям с тонкой душевной организацией, легко ранимым, воспринимающим все на свой счет, с отсутствием чувства юмора и самоиронии - НЕ РЕКОМЕНДУЕТСЯ!

Качаем c FTP!

Качаем альбомы, бутлеги и видео Nirvana с FTP сервера. Для подключения используйте бесплатный FTP-клиент FileZilla.

Данные для доступа:
Сервер: ftp://nirvanaall.ru
Логин: kurt
Пароль: 4ever
Пароль на архив: nirvanaall.ru

Рассылка новостей

На страницу рассылки

Подписаться

Работа над ошибками

Если вы обнаружили на сайте ошибку или недостоверную информацию, то выделите ошибочное слово или фразу и нажмите Ctrl+Enter. Спасибо за участие!

О сайте Kurt Cobain [ru]

Концепция | Контакты | Баннеры

Объявления

Для ссылок.
Яндекс цитирования хостинг от .masterhost
Rambler's Top100