Nirvana Нирвана Курт Кобейн Kurt Cobain Nirvana
Нирвана
Курт Кобейн Kurt Cobain Nirvana Нирвана Курт Кобейн Kurt Cobain Nirvana
Нирвана Курт Кобейн Kurt Cobain Nirvana Нирвана Курт Кобейн Kurt Cobain
Nirvana Нирвана Курт Кобейн Kurt Cobain Nirvana Нирвана Курт Кобейн

Пост-гранж группы

Jonas

Российские гранж-группы

Crisis Dance
The Glue

Кто на сайте?

Сейчас 17 гостей онлайн.

Поиск

Главная страница Аккорды и табы Incesticide Ударные партии Nirvana "Incesticide"

Ударные партии Nirvana "Incesticide" PDF Печать E-mail

Sliver

Verse 1 (Closed H.H.)
|----repeat-8x----|
H -----x-------x---|-----x---X-------|
S -----------------|-------------f---|
B -----------------|-----------o---o-|

Chorus 1 (Loose H.H.)
|----repeat-2x----|
C -x---------------|-x---------------|
H -----x-x-x-x-x-x-|-----x-x---------| repeat
S -----o-------o---|-----o-o-oooooooo| 1x
B -o-------o-----o-|-o---------------|

Verse 2 (Closed H.H.)
|----repeat-3x----|
C -x---------------|-----------------|-----------------|
H -----x-x-x-x-x-x-|-x-x-x-x-x-x-x-x-|-x-x-X-X---------|
S -----o-------o---|-----o-------o---|-----o-o-ggggoooo|
B -o-------o-----o-|-o-------o-----o-|-o---------------|

Repeat Chorus 1 for Chorus 2

|----repeat-2x----|
C -x---------------|-----------------|-x---------------|-----------------|
Rd-----x-x-x-x-x-x-|-x-x-x-x-x-x-x-x-|-----x-x-x-x-x-x-|-x-x-x-x---------|
S -----o-------o---|-----o-------o---|-----o-------o---|-----o-o-ggggoooo|
B -o-------o-----o-|-o-------o-----o-|-o-------o-----o-|-o---------------|

Repeat Chorus 1 for Chorus 3

Verse 3 (Closed H.H.)
|----repeat-3x----|
C -x---------------|-----------------|-----------------|
H -----x-x-x-x-x-x-|-x-x-x-x-x-x-x-x-|-x-x-X-X---------|
S -----o-------o---|-----o-------o---|-----o-o-oooooooo|
B -o-----o-o-----o-|-o-----o-o-----o-|-o---------------|

Repeat Chorus 1 for Chorus 4

Repeat Chorus 1 for Chorus 5

|----repeat-2x----|
C -x---------------|-x---------------|-----------------|
H -----x-x-x-x-x-x-|-----x-x---------|-X---------------|
t -----------------|---------ooo-----|-----------------|
S -----o-------o---|-----o-o----ooooo|-o---------------|
B -o-------o-----o-|-o---------------|-----------------|

END

 

Stain

Intro (Loose H.H.) |----repeat-4x----|
C ---------x-------|------x----------|-----------------|
H -----------------|-----------x-x-x-|-x-x-x-x-x-x-x-x-|
S --------f--------|-----f-------o---|-----o-------o---|
B ---------o-------|------o----o---o-|-o-o---o---o---o-|

Verse 1 (Loose H.H.)
H -x-x-x-x-x-x-x-x-| repeat
S -----o-------o---| 7x
B -o-o---o---o---o-|

Chorus 1 (Loose H.H.)
C -x-----x-------x-|
H ---x-x---x-x-x---|
S -----o-------o---|
B -o-----o---o---o-|
____________________________________
|1.2.3. |4. |
H -x-x-x-x-x-x-x-x-|-x-x-x-x-x-------|
S -----o---o---o---|-----o---o-------|
B ---o---o---o---o-|---o---o---------|

Pt 1 (Loose H.H.) |----repeat-2x----|
C -x---------------|-----------------|
H ---x-x-x-x-x-x-x-|-x-x-x-x-x-x-x-x-|
S -----o-------o---|-----o-------o---|
B -o-o---o---o---o-|-o-o---o---o---o-|

Repeat Verse 1 for Verse 2

Repeat Chorus 1 for Chorus 2

Repeat Pt 1 2x for Guitar Solo

Guitar Solo (Continued from above)
H -x-x-x-x-x-x-x-x-| repeat
S -----o-------o---| 7x
B -o-o---o---o---o-|

Repeat Chorus 1 for Chorus 3

Repeat Pt 1

Repeat Verse 1 for Verse 3

Chorus 4 (Loose H.H.)
C -x-----x-------x-|
H ---x-x---x-x-x---|
S -----o-------o---|
B -o-----o---o---o-|
____________________________________
|1.2.3.4.5.6.7. |8. |
H -x-x-x-x-x-x-x-x-|-x-x-x-x-x-------|
S -----o---o---o---|-----o---o-------|
B ---o---o---o---o-|---o---o---------|

END

 

Been A Son

Intro (Loose H.H.)
C |-x---------------|-----------------|
H |-----x-x-x-x-x-x-|-x-x-x-x-x-x-x-x-| repeat
S |-----o--o----o---|-----o--o----o---| 1x
B |-o-------o-o---o-|---o-----o-o-----|

Verse 1 (Loose H.H.)
|----repeat-3x----|
C |-x---------------|-----------------|-x---------------|
H |-----x-x-x-x-x-x-|-x-x-x-x-x-x-x-x-|-----x-x-x-x-x-x-|
S |-----o--o----o---|-----o--o----o---|-----o---o---o---|
B |-o-------o-o---o-|---o-----o-o---o-|-o---------o---o-|

Chorus 1:
C |-x---------------|
Rd|-----x-x-x-x-x-x-|
S |-----o-------o---|
B |-o-------o-o---o-|
___________________________________
|1.2.3. |4. |
Rd|-x-x-x-x-x-x-x-x-|-x-x-x-x---------|
S |-----o---o---o---|-----o---oooooooo|
B |---o-------o---o-|---o----o--------|

Repeat Verse 1 for Verse 2

Repeat Chorus 1 for Chorus 2

Pt 1:
C |-x---x---x---x---|
S |-----o--o----o---|
B |-o-------o-o---o-|
___________________________________
|1.2.3. |4. |
C |-x---x---x---x---|-x---x---x---x---|
S |-----o--o----o---|-----o---o---o---|
B |-o-------o-o-----|-o---------o---o-|

Repeat Chorus 1 for Chorus 3

Repeat Verse 1 for Verse 3

Chorus 4:
|-------------repeat-3x-------------|
C |-x---------------|-----------------|-x-------x-x-x-x-|
Rd|-----x-x-x-x-x-x-|-x-x-x-x-x-x-x-x-|-----x-x---------|
S |-----o-------o---|-----o---o---o---|-----o---o-o-o-o-|
B |-o-------o-o---o-|---o-------o---o-|-o-----o---------|

 

Turnaround

Intro + Verse 1:
|----repeat-18x---|
S |-----o-------o---|-----o-------f---|
F |-o-o-o-o-o-o-o-o-|-o-o-o-o-o-o-----|
B |-o-o-----o-o-----|-o-o-----o-o-----|

Chorus 1 (Loose H.H.)
C |-x---------------|-----------------|
H |-----x---x---x---|-x---x---x---x---| repeat
S |-----o-------o---|-----o-------o---| 4x
B |-o-------o-o---o-|---o-----o-o-----|

Verse 2: |----repeat-5x----|
C |-x---------------|-----------------|-----------------|
t |-----------------|-----------------|------------o----|
T |-----------------|-----------------|-------------o---|
S |-----o-------o---|-----o-------o---|-----o-----------|
F |-----o-o-o-o-o-o-|-o-o-o-o-o-o-o-o-|-o-o-o-o-o-------|
B |-o-o-----o-o-----|-o-o-----o-o-----|-o-o-----o-------|

Repeat Chorus 1 for Chorus 2 (Last measure is different)

Chorus 2 (Last measure)
H |-x---x---x---x---|
S |-----o---o---o---|
B |---o---o---o---o-|

Pt 1:
|----repeat-5x----| |----repeat-6x----|
S |-----------------|-----------------|-----o-------o---|-----o-------f---|
F |-----------------|-g-g-g-g-g-g-g-g-|-o-o-o-o-o-o-o-o-|-o-o-o-o-o-o-----|
B |-o---o---o---o---|-o---o---o---o---|-o-------o-o-----|-o-o-----o-o-----|

H |-x---x---x-x-----|
S |-o---o---o-o-----|
B |-o---o---o---o---|
___________________________________
|1.2.3.4. |5. |
S |-----------------|---o-o-o-o-o-o-o-|
B |-o---o---o---o---|-o---------------|

Repeat Verse 2 for Verse 3 (Last measure is different)

Verse 3 (Last measure)
S |-----o-------o---|
F |-o-o-o-o-o-o-o-o-|
B |-o-o-----o-o-----|

Repeat Chorus 1 for Chorus 3

|----repeat-1x----|----repeat-2x----|
t |-----------------|---------ooo-----|-----------------|-x---------------|
S |-----o-------o---|-----o-------o---|-----o-------o---|-----------------|
F |-o-o-o-o-o-o-o-o-|-o-o-o-o-----o-o-|-o-o-o-o-o-o-o-o-|-----------------|
B |-o-o-----o-o-----|-o-o-----o--o----|-o-o-----o-o-----|-o---------------|

END

 

Molly's Lips

Intro (Loose H.H)
|----repeat-1x----|
S |-----------------|-----------------|-------------f---|
B |-----------------|-----------------|-----------o---o-|
Hf|-----------------|-----x---x---x---|-x---x---x-------|

|----repeat-1x----|
C |-x---------------|-----------------|-----------------|
H |-----x---x---x---|-x---x---x---x---|-x---x---x-------|
S |-----o--o----o---|-----o--o----o---|-----o---o---oooo|
B |-o-o---o-o-o---o-|-o-o---o-o-o---o-|-o-o---o---o-----|

Verse 1 (Loose H.H) |----repeat-1x----|
C |-x---------------|-----------------|
H |-----x---x---x---|-x---x---x---x---|
S |-----o-------o---|-----o-------o---|
B |-o-o---o-o-o---o-|-o-o---o-o-o---o-|
___________________________________
|1. |2. |
H |-x---x---x-------|-x---------------|
t |-----------------|-------------oooo|
S |-----o---o---oooo|----ooooooooo----|
B |-o-o---o---o-----|-o---------------|

Chorus 1: |----repeat-1x----|
C |-x---------------|-----------------|-----------------|
Rd|-----x---x---x---|-x---x---x---x---|-x---x---x-x-x---|
S |-----o-------o---|-----o-------o---|-----o-------o---|
B |-o-o-----o-o---o-|-o-o---o-o-o---o-|-o-o---o-o-o---o-|

Rd|-x-x-x---x---x---|-x---x---x---x---|-x---x---x-x-x---|-x---x-----------|
S |-----o-------o---|-----o-------o---|-----o-------o---|-----o---o-ooo-oo|
B |-o-o---o-o-o---o-|-o-o---o-o-o---o-|-o-o---o-o-o---o-|-o-o---o---------|

Verse 2 (Loose H.H.)|----repeat-1x----|
C |-x---------------|-----------------|
H |-----x---x---x---|-x---x---x---x---|
S |-----o-------o---|-----o-------o---|
B |-o-o---o-o-o---o-|-o-o---o-o-o---o-|
___________________________________
|1. |2. |
H |-x---x---x-------|-x---x---x-------|
t |---------------oo|-----------------|
S |-----o---o---oo--|-----o---o-ooo-oo|
B |-o-o---o---o-----|-o-o---o---------|

Chorus 2 (Play Ride like Cymbal)
|----repeat-5x----|
C |-x---------------|-----------------|-----------------|
Rd|-----x-x-x-x-x-x-|-x-x-x-x-x-x-x-x-|-x-x-x-x-x-------|
S |-----o-------o---|-----o-------o---|-----o---o---oooo|
B |-o-o-----o-o---o-|-o-o---o-o-o---o-|-o-o---o---------|

Pt 1 (Loose H.H) |----repeat-1x----|
C |-x---------------|-----------------|
H |-----x---x---x---|-x---x---x---x---|
S |-----o-------o---|-----o-------o---|
B |-o-o-----o-o---o-|-o-o---o-o-o---o-|
___________________________________
|1. |2. |
H |-x---x---x-------|-x---------------|
S |-----o---o-ooo-oo|---oooooooooooooo|
B |-o-o---o---------|-o---------------|

Verse 3 (Loose H.H) |----repeat-1x----|
C |-x---x---x-------|-----------------|-----------------|
H |-------------x---|-x---x---x---x---|-x---x---x---x---|
S |-----o-------o---|-----o-------o---|-----o---o---o---|
B |-o-o-----o-o---o-|-o-o---o-o-o---o-|-o-o---o---o---o-|

|----repeat-1x----|
C |-x---------------|-----------------|-----------------|
H |-----x---x---x---|-x---x---x---x---|-x---------------|
t |-----------------|-----------------|-----------oooo--|
T |-----------------|-----------------|---------------oo|
S |-----o-------o---|-----o-------o---|---oooooooo------|
B |-o-o---o-o-o---o-|-o-o---o-o-o---o-|-o---------------|

Repeat Chorus 2 for Chorus 3 (Last measure is different)

Chorus 3 (Last measure)
Rd|-x-x-x-x-x-X-X-X-|
S |-----o-----o-o-o-|
B |-o-o---o-o-------|

Repeat Chorus 2 for Chorus 4 (Last measure is different)

Chorus 4 (Last measure)
C |-x---x---x-------|
T |-------------o---|
S |-o---o---o-------|
B |---o---o---o-----|

C |-x---------------|
B |-o---------------|

END

 

Son of A Gun

Intro (Loose H.H.)
|----repeat-1x----|
S |-----------------|-----g-g-o-o-o-o-|-o-o-o-o-o---f---|
F |-----------------|-----g-g-o-o-o-o-|-o-o-o-o-o-------|
B |-----------------|-----------------|-----------o---o-|
Hf|-----------------|-x---x-----------|-----------------|

C |-x---------------|
H |-----x-x-x-x-x-x-|
S |-o---o---o---o---|
B |-------o---o---o-|
___________________________________
|1. |2. |
H |-x-x-x-x-x-x-x-x-|-x-x-x-x-x-x-x-x-|
S |-o---o---o---o---|-o---o---o---o---|
B |-------o---o---oo|-------o---o---o-|

Verse 1 (Loose H.H)
C |-x---------------|
H |-----x-x-x-x-x-x-|
S |-o---o---o---o---|
B |-------o---o---o-|
_____________________________________________________
|1.3. |2. |4. |
H |-x-x-x-x-x-x-x-x-|-x-x-x-x-x-x-x-x-|-x-x-x-x-x-x-x---|
S |-o---o---o---o---|-o---o---o---o---|-o---o---o---o-oo|
B |-------o---o---o-|-------o---o---oo|-------o---o-----|

Chorus 1 (Play Ride like Cymbal)
|----repeat-2x----| |----repeat-1x----|
C |-x---------------|-----------------|-x---------------|-----------------|
Rd|-----x-x-x-x-x-x-|-x-x-x-x-x-x-x-x-|-----x-x-x-x-x-x-|-x-x-x-x-x-x-x-x-|
S |-----o---o---o---|-o---o---o---o---|-o---o---o---o---|-o---o---o---o---|
B |-o-o---o---o---o-|-------o---o---o-|-------o---o---o-|-------o---o---o-|
___________________________________
|1. |2. |
C |-----------------|-x-x-x-x-x-x-x-x-|
Rd|-x-x-x-x-x-x-----|-----------------|
t |---------------oo|-----------------|
S |-o---o---o---oo--|-o-o-o-o-o-o-o-o-|
F |-----------------|-o-o-o-o-o-o-o-o-|
B |-------o---o-----|-o-o-o-o-o-o-o-o-|

Verse 2 (Loose H.H.)
C |-x---------------|
H |-----x-x-x-x-x-x-|
S |-o---o---o---o---|
B |-------o---o---o-|
___________________________________
|1.2.3. |4. |
H |-x-x-x-x-x-x-x-x-|-x-x-x-x-x-x-x---|
S |-o---o---o---o---|-o---o---o---o-oo|
B |-------o---o---oo|-------o---o-----|

___ ___
Repeat Chorus 1 for Chorus 2 (|1. and |2. are different)
___________________________________
|1. |2. |
Rd|-x-x-x-x-x-x-x-x-|-x-x-x-x-x-x-x-x-|
S |-o---o---o---o---|-o---o---o---o---|
B |-------o---o---o-|---o---o---o---o-|

Guitar Pt: |-------------repeat-1x-------------|
C |-x---------------|-----------------|-x---------------|-----------------|
Rd|-----x-x-x-x-x-x-|-x-x-x-x-x-x-x-x-|-----x-x-x-x-x-x-|-x-x-x-x-x-x-x-x-|
S |-----o---o---o---|-o---o---o---o---|-o---o---o---o---|-o---o---o---o---|
B |-o-----o---o---o-|---o---o---o---o-|-------o---o---o-|-------o---o---o-|

Rd|-x-x-x-x-x-x-x-x-|-x-x-x-x---------|
t |-----------------|-----------oooo--|
T |-----------------|---------------oo|
S |-o---o---o---o---|-o---o---oo------|
B |-------o---o---o-|-------o---------|

|----repeat-2x----|
C |-x---------------|-----------------| repeat
Rd|-----x-x-x-x-x-x-|-x-x-x-x-x-x-x-x-| 1x
S |-o---o---o---o---|-o---o---o---o---|
B |-------o---o---o-|-------o---o---o-|

Repeat Verse 2 for Verse 3

_____ ___ ___
Repeat Chorus 1 for Chorus 3 (|1.3. |2. and |4. are the new bars)
_____________________________________________________
|1.3. |2. |4. |
C |-----------------|-----------------|-x-x-x-x-x-x-x---|
Rd|-x-x-x-x-x-x-x-x-|-x-x-x-x-x-x-x---|-----------------|
S |-o---o---o---o---|-o---o---o---o-oo|-o-o-o-o-o-o-o---|
B |-------o---o---o-|---o---o---o-----|-o-o-o-o-o-o-o---|

C |-x---------------|
B |-o---------------|

END

 

Polly (New Wave)

Intro (Loose H.H.)
C |-x---------------|-------x---------|-----------------|-------x---------|
H |-----x-x-x-x-x-x-|-x-x-----x-x-x-x-|-x-x-x-x-x-x-x-x-|-x-x-------------|
S |-----o-------o---|-----o-------o---|-----o-------o---|-----o-------oooo|
B |-o-------o-o-----|-o-o---o---o-----|-o-------o-o-----|-o-o---o---o-----|

Verse 1 (Loose H.H.)
C |-x---------------|-------x---------|
H |-----x-x-x-x-x-x-|-x-x-----x-x-x-x-|
S |-----o-------o---|-----o-------o---|
B |-o-------o-o-----|-o-o---o---o-----|

H |-x-x-x-x-x-x-x-x-|
S |-----o-------o---|
B |-o-------o-o-----|
___________________________________
|1.2. |3. |
C |-------x---------|-x---------------|
H |-x-x-----x-x-x-x-|-----------------|
S |-----o-------o---|----ooooooooooooo|
B |-o-o---o---o-----|-o---------------|

Chorus 1 (Loose H.H.)
C |-x-----x---------|-x-----x---------|-x-----x---------|
H |-----x-----------|-----x-----------|-----x-----------|
t |-----------------|-------------oooo|-----------------|
T |-------------oooo|-----------------|-----------------|
S |-----o-----------|-----o-----------|-----o-------oooo|
B |-o-----o---o-----|-o-----o---o-----|-o-----o---o-----|
___________________________________
|1. |2. |
C |-x-----x---------|-x-----x---------|
H |-----x-----------|-----x-----------|
t |-----------o-o---|-----------------|
S |-----o---------oo|-----o-------o---|
F |-----------------|-------------o---|
B |-o-----o---o-o---|-o-----o---o-----|

|----repeat-1x----|
C |-x-----x---------|-x-----x---------|-x-----x---------|-x-----x---------|
H |-----x-----------|-----x-----------|-----x-----------|-----x-----------|
t |-----------------|-----------------|-------------oooo|-----------------|
T |-------------oooo|-----------------|-----------------|-----------------|
S |-----o-----------|-----o-------oooo|-----o-----------|-----o-------oooo|
B |-o-----o---o-----|-o-----o---o-----|-o-----o---o-----|-o-----o---o-----|

C |-x-----x---------|-x-----x---------|-x-----x---------|
H |-----x-----------|-----x-----------|-----x-----------|
t |-------------oooo|-----------------|-----------------|
T |-----------------|-------------oooo|-----------------|
S |-----o-----------|-----o-----------|-----o-------f---|
B |-o-----o---o-----|-o-----o---o-----|-o-----o---o-----|

Repeat Intro

Repeat Verse 1 for Verse 2

Chorus 2 (Loose H.H.)
C |-x-----x---------|
H |-----x-----------|
T |-------------oooo|
S |-----o-----------|
B |-o-----o---o-----|

C |-x-----x---------|
H |-----x-----------|
S |-----o-------oooo|
B |-o-----o---o-----|
_____________________________________________________
|1. |2.3. |4. |
C |-x-----x---------|-x-----x---------|-x-----x---------|
H |-----x-----------|-----x-----------|-----x-----------|
t |-------------oooo|-----------------|-----------------|
T |-----------------|-------------oooo|-----------------|
S |-----o-----------|-----o-----------|-----o---------oo|
B |-o-----o---o-----|-o-----o---o-----|-o-----o---o-o---|

|-------------repeat-2x-------------|
C |-x-----x---------|-x-----x---------|-x-----x---------|
H |-----x-----------|-----x-----------|-----x-----------|
T |-------------oooo|-----------------|-----------------|
S |-----o-----------|-----o-------oooo|-----o-------f---|
B |-o-----o---o-----|-o-----o---o-----|-o-----o---o-----|

Pt 1:
|----repeat-2x----|
S |-----o-------o---|-ooooooooo-------|
F |-o-o-o-o-o-o-o-o-|-------------f---|
B |-o-o-----o-o-----|-----------o-----|

___
Repeat Verse 1 for Verse 3 (|2. is different)
_________________
|2. |
C |-------x---------|
H |-x-x-----x-x-x-x-|
S |-----o-------o-o-|
B |-o-o---o---o-----|

Chous 3 (Loose H.H.) |----repeat-1x----|
C |-x-----x---------|-x-----x---------|-x-----x---------|-x-----x---------|
H |-----x-----------|-----x-----------|-----x-----------|-----x-----------|
t |-----------------|-------------oooo|-----------------|-----------------|
T |-------------oooo|-----------------|-----------------|-----------------|
S |-----o-----------|-----o-----------|-----o-------oooo|-----o---------oo|
B |-o-----o---o-----|-o-----o---o-----|-o-----o---o-----|-o-----o---o-o---|

C |-x-----x---------|-x-----x---------|-x-----x---------|
H |-----x-------x-x-|-----x-----------|-----x-----------|
t |-----------------|---------------oo|-----------------|
S |-----o-------o---|-----o-------oo--|-----o-------f---|
B |-o-----o---o-----|-o-----o---o-----|-o-----o---o-----|

Repeat First 5 Measures of Chorus 3

|----repeat-1x----|
C |-x-----x---------|-x-----x---------|-x---------------|
H |-----x-----------|-----x-----------|-----------------|
S |-----o-------oooo|-----o-------f---|-----------------|
B |-o-----o---o-----|-o-----o---o-----|-o---------------|

END

 

Beeswax

Intro (Closed H.H.)
H |-------------X---|
t |-----------------|
S |-------------o---|
B |---------o---o---|

H |-x---x---x---x---|
t |-----------o-----| repeat
S |-------f-----o---| 2x
B |-o---o---o-------|
_____________________________________________________
|1. |2. |3. |
C |-------------x---|-----------------|-----------------|
Rd|-----------------|-----------------|-------X---X-X---|
H |-x---x---x-------|-x---x---x---x---|-x---x-----------|
t |-----------o-----|-----------o-----|-----------------|
S |-------f---------|-------f-----o---|-------o-----o---|
B |-o---o---o---o---|-o---o---o-------|-o---o---o-------|

Verse 1 (Closed H.H.)
|----repeat-6x----|
H |-x---x---x---x---|-----------------|
t |-----------o-----|-----------------|
S |-------f-----o---|-f---f---f-o-f---|
B |-o---o---o-------|---------------o-|

Chorus 1 (Loose H.H.)
C |-x---------------|-----------------|
H |-----x---x---x---|-x---------------| repeat
t |-----------------|---------o---ooo-| 3x
S |-o---o---o---o---|-o---f-f---------|
B |-------o---o-----|-----------------|

Repeat Verse 1 for Verse 2

Repeat Chorus 1 for Chorus 2

Pt 1:
C |-x-x-x-x---------|
Rd|---------X-X-X-X-|
S |-o-o-o-o---------|
B |-o---o---o---o---|
___________________________________
|1.2.3. |4. |
Rd|-X-X-X-X-X-X-X-X-|-----------------|
S |-----------------|-f---f---f-o-f---|
B |-o---o---o---o---|---------------o-|

Repeat Chorus 1 for Chorus 3

Verse 3 (Closed H.H.)
|----repeat-2x----|
C |-----------------|-------------x---|
H |-x---x---x---x---|-x---x---x-------| repeat
t |-----------o-----|-----------o-----| 1x
S |-------f-----o---|-------f-----o---|
B |-o---o---o-------|-o---o---o-------|

H |-x---x---x---x---|
t |-----------o-----|
S |-------f-----o---|
B |-o---o---o-------|
_______________________________________________________________________
|1. |2. |3. |4. |
C |-----------------|-----------------|-------------x---|-----------------|
Rd|-------X---X-X---|-----------------|-----------------|-----------------|
H |-x---x-----------|-x---x---x---x---|-x---x---x-------|-----------------|
t |-----------------|-----------o-----|-----------o-----|-----------------|
S |-------o-----o---|-------f-----o---|-------f-----o---|-f---f---f---f---|
B |-o---o---o-------|-o---o---o-------|-o---o---o-------|-----------o---o-|

Repeat Chorus 1 for Chorus 4

Repeat Pt 1

Repeat Chorus 1 for Chorus 5

Repeat Chorus 1 for Chorus 6 (Minus last repeat)

END

 

Aneurysm

Sequence:

This is basically a song which can be split into these sections:

1. Introduction (from the start right up to the end of the second ascending guitar bit.)
2. Verse 1 (two quiet parts as well as the "C'mon over", etc.)
3. Chorus (Beat me out'a me)
4. Verse 2
5. Chorus
6. Outro (Basically where all the rest fits in after the second "Beat me out'a me section).

PLEASE READ....

NOTES: In the introduction,(where the guitar blasts into the distortion bit), and the outro,
Dave does one of coolest fills I have ever heard. Here is the fill below, if you think
you are capable of doing it but for the beginners i have written a simplified version
of that fill for the newer drummers in the actual tab.

("{3}" - triplet.)

 

_____fill_____
/ \
| {3} |
Cym ---------------------------------|
MT o---o---o---o---o------------oo--|
S -------------------------f-------|
FT 0---0---0---0-----o--------------|
B -----------------0-0---0----0---0|
| | |
1 e + a 2 e + a 3TLe + a 4 e + a

type this URL in your browser to download the wav file of that fill in slow motion....
http://www.iinet.net.au/~simnoris/aneurysm.wav

(4-4 timing)
(drums enter on 1st beat of 5th bar)

InTrOdUcTiOn
------------

___6 times___
/ \
|c.{gradually} | | | | |
Cym X-----------------------------------------------R---R---R---R---R---R---R-------|
MT --o-o-o-o-o-o-o-o-o-o-o-o-o-o-o-O-O-O-O--O----O-----------------------------oo--|
S o-------------------------------------------F-------o--*----o--*----o--*-*oo----|continued
FT --o-o-o-o-o-o-o-o-o-o-o-o-o-o-o-O-O-O-O-O-O----O------------------------------oo|below
B -------------------------------------------0-0--0-0-----0-0-----0-0-----0-------|
| | | | | |
1 + 2 + 3 + 4 + 1 + 2 + 3 + 4 + 1 + 2 + 3e+a4e+a1 + 2 + 3 + 4 + 1 + 2 + 3 + 4 +

| | | | | |
Cym R---R---R---R---R---R---X---X---X---R---R---R---R---R---R-------R---R---R---R---|
S ----o--*----o--*----o--*-*oo-*oo----o--*----o--*----o--*-*oo--------o--*----o--*|continued
FT --------------------------------------------------------------oo----------------|below
B 0-0-----0-0-----0-0-----0-------0-0-----0-0-----0-0-----0-------0-0-----0-0-----|
| | | | | |
1 + 2 + 3 + 4 + 1 + 2 + 3 + 4 + 1 + 2 + 3 + 4 + 1 + 2 + 3 + 4 + 1 + 2 + 3 + 4 +

| | | | | |
Cym R---R---R---X---X---R---R---R---R---R---R-------R---R---R---R---R---R---X---X---|
MT --------------------------------------------oo----------------------------------|
S ----o--*-*oo-*oo----o--*----o--*----o--*-*oo--------o--*----o--*----o--*-*oo-*oo|continued
FT ----------------------------------------------oo--------------------------------|below
B 0-0-----0-------0-0-----0-0-----0-0-----0-------0-0-----0-0-----0-0-----0-------|
| | | | |
1 + 2 + 3 + 4 + 1 + 2 + 3 + 4 + 1 + 2 + 3 + 4 + 1 + 2 + 3 + 4 + 1 + 2 + 3 + 4 +

___8 times___
/ \
| | | | | |
Cym X---R---R---R---R---R---R-------R---R---R---R---R---R---R-------X---@---@---@---|
MT ----------------------------oo--------------------------------------------------|
S ----o--*----o--*----o--*-*oo--------o--*----o--*----o-----oooooo----------------|
FT ------------------------------oo------------------------------------------------|
B 0-0-----0-0-----0-0-----0-------0-0-----0-0-----0-0-----0-------0---------------|
| | | | | |
1 + 2 + 3 + 4 + 1 + 2 + 3 + 4 + 1 + 2 + 3 + 4 + 1 + 2 + 3 + 4 + 1 + 2 + 3 + 4 +

VeRsE 1
-------

| | | | | |
Cym =---------------------------------------------------------------X---@---@---@---|
S ----f-------f-------f-------f-------f-------f-------F-------F-------o-------o---|continued
FT ---------oO--------------oO--------------oO-------O-----O-O---------------------|below
B 0-0---0-0-0---0-0-0---0-0-0---0-0-0---0-0-0---0-0-----0-0-0---0-0-------0-0-----|
| | | | | |
1 + 2 + 3 + 4 + 1 + 2 + 3 + 4 + 1 + 2 + 3 + 4 + 1 + 2 + 3 + 4 + 1 + 2 + 3 + 4 +

| | | {3} | | |
Cym @---@---@---@---=--------------------------------X---@---@---@---@---@---@---@---|
S ----o---o---o-------f-------f-------f--------F-------o-------o-------o---o---o---|continued
FT -------------------------oO-----------ooo----------------------------------------|below
B 0-0---0---0-----0-0---0-0-0---0-0-0--------0---0-0-------0-0---0-0-----0---0-----|
| | | | | |
1 + 2 + 3 + 4 + 1 + 2 + 3 + 4 + 1 + 2 +TL3 + 4 + 1 + 2 + 3 + 4 + 1 + 2 + 3 + 4 +

____________________________2 times___________________________
/ \
| enter vocals| {3} | | | |
Cym =--------------------------------X---@---@---@---@---@---@---@---=---------------|
S ----f-------f-------f--------F-------o-------o-------o---o---o-------f-------f---|continued
FT ---------oO-----------ooo--------------------------------------------------------|below
B 0-0---0-0-0---0-0-0--------0---0-0-------0-0-----0-0---0---0-----0-0---0-0-0---0-|
| | | | | |
1 + 2 + 3 + 4 + 1 + 2 +TL3 + 4 + 1 + 2 + 3 + 4 + 1 + 2 + 3 + 4 + 1 + 2 + 3 + 4 +

| {3} | | | | {3} |
Cym -----------------X---@---@---@---@---@---@---@---=--------------------------------|
S ----f--------F-------o-------o-------o---o---o-------f-------f-------f--------F---|cont'd
FT ------ooo-------------------------------------------------oO-----------ooo--------|below
B 0-0--------0---0-0-------0-0-----0-0---0---0-----0-0---0-0-0---0-0-0--------0---0-|
| | | | | |
1 + 2 +TL3 + 4 + 1 + 2 + 3 + 4 + 1 + 2 + 3 + 4 + 1 + 2 + 3 + 4 + 1 + 2 +TL3 + 4 +

| | c.<<<<<<<<<<<<|
Cym X---@---@---@---@---R-R-R-R-R---|
S ----o-------o-----*-*-o-o-o-o-OO|
FT --------------------------------|
B 0-------0-0-----0-0-0-0-0-0-0---|
| | |
1 + 2 + 3 + 4 + 1 + 2 + 3 + 4 +

ChOrUs ("beat me out'a me")
------
___________4 times___________
/ \
| | | | | |
Cym R-R-R-R-R-R-R-R-R-R-R-R-R-R-R-R-R-R-R-R-R-R-R-R-R-R-R-R-R-R-R-R-R-R-R-R-R-R-R-R-|
S ----o-o-----o--o----o-o------o------o--o----o--o----o-o-----o-------o-o-----o--o|continued
B 0-0-----0-0-----0-0-----0-0-----0-0-----0-0-----0-0-----0-0------0-0----0-0-----|below.
| | | | | |
1 + 2 + 3 + 4 +a1 + 2 + 3 + 4 + 1 + 2 +a3 + 4 +a1 + 2 + 3 + 4 + 1 + 2 + 3 + 4 +a

| | | | | |
Cym R-R-R-R-R-R-R-R-R-R-R-R-R-R-R-R-R-R-R-R-R-R-R-R-R-R-R-R-R-R-R-R-R-R-R-R-R-R-R-R-|
S ----o-o------o------o-o-----o--o----o-o-----o-------o-o-----o--o----o-o-----o---|
B 0-0-----0-0-----0-0-----0-0-----0-0-----0-0------0-0----0-0-----0-0-----0-0-----|
| | | | | |
1 + 2 + 3 + 4 + 1 + 2 + 3 + 4 +a1 + 2 + 3 + 4 + 1 + 2 + 3 + 4 +a1 + 2 + 3 + 4 +

VeRsE 2
-------

____________________________3 times___________________________
/ \
| | {3} | | | |
Cym =--------------------------------X---@---@---@---@---@---@---@---=---------------|
S ----f-------f-------f--------F-------o-------o-------o---o---o-------f-------f---|continued
FT ----------------------ooo--------------------------------------------------------|below
B 0-0---0-0-0---0-0-0--------0---0-0-------0-0-----0-0-------------0-0---0-0-0---0-|
| | | | | |
1 + 2 + 3 + 4 + 1 + 2 +TL3 + 4 + 1 + 2 + 3 + 4 + 1 + 2 + 3 + 4 + 1 + 2 + 3 + 4 +

| {3} | | |
Cym -----------------X---@---@---@---@---R-R-R-R-R---|
S ----f--------F-------o-------o-----*-*-o-o-o-o-OO|
FT ------ooo----------------------------------------|
B 0-0--------0---0-0-------0-0-----0-0-0-0-0-0-0---|
| | | |
1 + 2 +TL3 + 4 + 1 + 2 + 3 + 4 + 1 + 2 + 3 + 4 +

2nD ChOrUs ("beat me out'a me")
----------
___________4 times___________
/ \
| | | | | |
Cym R-R-R-R-R-R-R-R-R-R-R-R-R-R-R-R-R-R-R-R-R-R-R-R-R-R-R-R-R-R-R-R-R-R-R-R-R-R-R-R-|
S ----o-o-----o--o----o-o------o------o--o----o--o----o-o-----o-------o-o-----o--o|continued
B 0-0-----0-0-----0-0-----0-0-----0-0-----0-0-----0-0-----0-0------0-0----0-0-----|below.
| | | | | |
1 + 2 + 3 + 4 +a1 + 2 + 3 + 4 + 1 + 2 +a3 + 4 +a1 + 2 + 3 + 4 + 1 + 2 + 3 + 4 +a

| | | | | |
Cym R-R-R-R-R-R-R-R-R-R-R-R-R-R-R-R-R-R-R-R-R-R-R-R-R-R-R-R-R-R-R-R-R-R-R-R-R-------|
S ----o-o------o------o-o-----o--o----o-o-----o-------o-o-----o--o----o-o---OOOOOO|
B 0-0-----0-0-----0-0-----0-0-----0-0-----0-0------0-0----0-0-----0-0-----0-------|
| | | | | |
1 + 2 + 3 + 4 + 1 + 2 + 3 + 4 +a1 + 2 + 3 + 4 + 1 + 2 + 3 + 4 +a1 + 2 + 3 +a4e+a

OuTrO
-----

__11 times___
/ \
| | | | | |
Cym X---@---@---@---X---@-----------R---R---R---R---R---R---R---R---R---R---R-------|
MT -------------------------O----O-----------------------------oo------------------|
S ----------------------------F-------o--*----o--*----o--*-*oo--------o--*----o--*|continued
FT ------------------------O-O----O------------------------------oo----------------|below
B 0---------------0----------0-0--0-0-----0-0-----0-0-----0-------0-0-----0-0-----|
| | | | | |
1 + 2 + 3 + 4 + 1 + 2 + 3e+a4e+a1 + 2 + 3 + 4 + 1 + 2 + 3 + 4 + 1 + 2 + 3 + 4 +

| | {vocals}| | | |
Cym R---R---X---X---X---R---R---R---R---R---R-------R---R---R---R---R---R---R---X---|
MT --------------------------------------------oo----------------------------------|
S ----o--*-*oo-*oo----o--*----o--*----o--*-*oo--------o--*----o--*----o--*-*oo-*oo|continued
FT ----------------------------------------------oo--------------------------------|below
B 0-0-----0-------0-0-----0-0-----0-0-----0-------0-0-----0-0-----0-0-----0-------|
| | | | | |
1 + 2 + 3 + 4 + 1 + 2 + 3 + 4 + 1 + 2 + 3 + 4 + 1 + 2 + 3 + 4 + 1 + 2 + 3 + 4 +

| | | | | |
Cym X---R---R---R---R---R---R-------R---R---R---R---R---R---X---X---X---R---R---R---|
MT ----------------------------oo--------------------------------------------------|
S ----o--*----o--*----o--*-*oo--------o--*----o--*----o--*-*oo-*oo----o--*----o--*|continued
FT ------------------------------oo------------------------------------------------|below
B 0-0-----0-0-----0-0-----0-------0-0-----0-0-----0-0-----0-------0-0-----0-0-----|
| | | | | |
1 + 2 + 3 + 4 + 1 + 2 + 3 + 4 + 1 + 2 + 3 + 4 + 1 + 2 + 3 + 4 + 1 + 2 + 3 + 4 +

| | | | | |
Cym R---R---R-------R---R---R---R---R---R---R---X---X---R---R---R---R---R---R-------|
MT ------------oo--------------------------------------------------------------oo--|
S ----o--*-*oo--------o--*----o--*----o--*-*oo-*oo----o--*----o--*----o--*-*oo----|continued
FT --------------oo--------------------------------------------------------------oo|below
B 0-0-----0-------0-0-----0-0-----0-0-----0-------0-0-----0-0-----0-0-----0-------|
| | | | | |
1 + 2 + 3 + 4 + 1 + 2 + 3 + 4 + 1 + 2 + 3 + 4 + 1 + 2 + 3 + 4 + 1 + 2 + 3 + 4 +

___7 times___
/ \ {roll on open hihat}
| | | | | |
Cym R---R---R---R---R---R---R-------X---@---@---@---X---@---@-@-@@@@@@@@@@@@@@@@@--=|
S ----o--*----o--*----o--*--OOOOOO------------------------------------------------|
B 0-0-----0-0-----0-0-----0-------0---------------0-------------------------------|
| | | | | |
1 + 2 + 3 + 4 + 1 + 2 + 3 + 4 + 1 + 2 + 3 + 4 + 1 + 2 + 3 + - - - - - - - - - -

 

Оставлять комментарии могут только зарегистрированные пользователи.

Тусовка на Kurt Cobain [ru]

Форум* | Гостевуха

* Людям с тонкой душевной организацией, легко ранимым, воспринимающим все на свой счет, с отсутствием чувства юмора и самоиронии - НЕ РЕКОМЕНДУЕТСЯ!

Качаем c FTP!

Качаем альбомы, бутлеги и видео Nirvana с FTP сервера. Для подключения используйте бесплатный FTP-клиент FileZilla.

Данные для доступа:
Сервер: ftp://nirvanaall.ru
Логин: kurt
Пароль: 4ever
Пароль на архив: nirvanaall.ru

Рассылка новостей

На страницу рассылки

Подписаться

Работа над ошибками

Если вы обнаружили на сайте ошибку или недостоверную информацию, то выделите ошибочное слово или фразу и нажмите Ctrl+Enter. Спасибо за участие!

О сайте Kurt Cobain [ru]

Концепция | Контакты | Баннеры

Объявления

Для ссылок.
Яндекс цитирования хостинг от .masterhost
Rambler's Top100