Nirvana Нирвана Курт Кобейн Kurt Cobain Nirvana
Нирвана
Курт Кобейн Kurt Cobain Nirvana Нирвана Курт Кобейн Kurt Cobain Nirvana
Нирвана Курт Кобейн Kurt Cobain Nirvana Нирвана Курт Кобейн Kurt Cobain
Nirvana Нирвана Курт Кобейн Kurt Cobain Nirvana Нирвана Курт Кобейн

Вернуться   Гранж форум | Kurt Cobain [ru] > NIRVANA & THE SOUND OF SEATTLE > Alice in Chains
Логин
Пароль
FAQ Участники Календарь Гранж-Чат Поиск Сообщения за сегодня Пометить все разделы как прочитанные


Ответ
 
Опции темы Поиск в этой теме Опции просмотра
  #31  
Старый 01.11.2005, 19:55
Аватара для Corwyn
Corwyn Corwyn вне форума
 
Регистрация: Aug 2005
Адрес: El Rancho
Возраст: 31
Сообщения: 424
Отправить сообщение для  Corwyn с помощью ICQ
По умолчанию

Блять, что за разговоры в строю!
__________________
Is this the way I spend my day
Скорей бы убить себя!
Ответить с цитированием
  #32  
Старый 01.11.2005, 20:02
Аватара для Corwyn
Corwyn Corwyn вне форума
 
Регистрация: Aug 2005
Адрес: El Rancho
Возраст: 31
Сообщения: 424
Отправить сообщение для  Corwyn с помощью ICQ
По умолчанию

Solo x2
1:| -3--2--0-----------3--2--0--2--7-----3--2--0--2--3--2--0--------
2:| ----------4--0--------------------------------------------4--0--
__________________
Is this the way I spend my day
Скорей бы убить себя!
Ответить с цитированием
  #33  
Старый 01.11.2005, 20:03
Аватара для Corwyn
Corwyn Corwyn вне форума
 
Регистрация: Aug 2005
Адрес: El Rancho
Возраст: 31
Сообщения: 424
Отправить сообщение для  Corwyn с помощью ICQ
По умолчанию

ой это сплин вообще
__________________
Is this the way I spend my day
Скорей бы убить себя!
Ответить с цитированием
  #34  
Старый 01.11.2005, 20:16
Аватара для Corwyn
Corwyn Corwyn вне форума
 
Регистрация: Aug 2005
Адрес: El Rancho
Возраст: 31
Сообщения: 424
Отправить сообщение для  Corwyn с помощью ICQ
По умолчанию

1. Suffragette City

As usuall, tunned 1/2 step down

Intro Repeat 3x:
|--------------------------------|--------------------------------|
|--------------------------------|--------------------------------|
|--------------------------------|--------------------------------|
|----------2--5--7--7--7--7--7---|------7--7--5--7--7-------------|
|----------2--5--7--7--7--7--7---|------7--7--5--7--7-------------|
|----------0--3--5--5--5--5--5---|------5--5--3--5--5-------------|
(drum fill)

|--------------------------------|
|--------------------------------|
|----9--7--5--2------------------|
|----9--7--5--2------------------|
|----7--5--3--0------------------|
|--------------------------------|

Repeat each
chord 8x
|--------------------------------|
|--------------------------------|
|--------------------------------|
|-----------7--9--10--12---------|
|-----------7--9--10--12---------|
|-----------5--7--8---10---------|

"...i gotta straighten my face"

Chorus
(figure out the pattern, here's the chords)
|--------------------------------|
|--------------------------------|
|-----7--10------12--------------|
|--7--7--10--10--12--------------|
|--7--5--8---10--10--------------|
|--5---------8-------------------|

"don't lean on me man...."



2. King Of The Kats

[Intro]
[Gtr.1 Electric w/Distortion]
Eb|-------------------------------------------------------------------|
Bb|-------------------------------------------------------------------|
Gb|-------------------------------------------------------------------|
Db|------------------------------5h7p5h7p5h7p5h7p5h7p5h7p5h7p5--------|
Ab|-------------------------------------------------------------------|
Eb|-0-0-1-2-3----------0-0-1-2-3-------------------------------1/15\1-|
<-----Medium To Fast Trill---->

[Intro] (cont.)
[Gtr.1 Electric w/Distortion]
Eb|-----------------------------------------|
Bb|-----------------------------------------|
Gb|-----------------------------------------|
Db|-----------------------------------------|
Ab|-----------------------------------------|
Eb|-0-0-1-2-3-----------0-0-1-2-3-----------|

[Intro] (cont.)
[Gtr.1 Electric w/Distortion]
Eb|------------------------------------------------------------------|
Bb|------------------------------------------------------------------| Play
Gb|------------------------------------------------------------------| Twice
Db|-----------------5-6-7-------5~-------------------5-6-7-------5~--|
Ab|-----------3-4-5-------5-6-7----------------3-4-5-------5-6-7-----|
Eb|-0-0-1-2-3------------------------0-0-1-2-3-----------------------|

Gtr.1: Use Wah to
simulate cat cry.

[Intro] (cont.)
[Gtr.1 Electric w/Distortion]
Eb|-----------------------------------------------------|
Bb|-----------------------------------------------------| Play
Gb|-----------------------------------------------------| Twice
Db|-------9-7--7-7--------------------------------------|
Ab|-2-2---7-5--5-5--5-7-7-5-2--2-2---2-7--7-7-8-9-9-5-2-|
Eb|-0-0-3-----------3-5-5-3-0--0-0-3-0-5--5-5-6-7-7-3-0-|
<---> P.M.

[Verse]

[Chorus]

[Before Verse]
[Gtr.1 Electric w/Distortion]
Eb|-----------------------------------------------------|
Bb|-----------------------------------------------------| Play
Gb|-----------------------------------------------------| Twice
Db|-------9-7--7-7--------------------------------------|
Ab|-2-2---7-5--5-5--5-7-7-5-2--2-2---2-7--7-7-8-9-9-5-2-|
Eb|-0-0-3-----------3-5-5-3-0--0-0-3-0-5--5-5-6-7-7-3-0-|
<---> P.M.

[Verse]

[Chorus]

[Bridge]
[Gtr.1 Electric w/Distortion]
Eb|-----------------------------------------------|
Bb|-----------------------------------------------| Play
Gb|-----------------------------------------------| Four
Db|-----------------------------------------------| Times
Ab|-5h6h7------------------5h6h7------------------|
Eb|------5h6h7-3b4p0-0-0-0------5h6h7-3b4p0-0-0-0-|

[Bridge] (cont.)
[Gtr.1 Electric w/Distortion]
Eb|-----------------------------------------------|
Bb|-----------------------------------------------|
Gb|-----------------------------------------------|
Db|-5h6h7------------------5h6h7------------------|
Ab|------5h6h7-3b4p0-0-0-0------5h6h7-3b4p0-0-0-0-|
Eb|-----------------------------------------------|

[Bridge] (cont.)
[Gtr.1 Electric w/Distortion]
Eb|-----------------------------------------------|
Bb|-----------------------------------------------|
Gb|-----------------------------------------------|
Db|-----------------------------------------------|
Ab|-5h6h7------------------5h6h7------------------|
Eb|------5h6h7-3b4p0-0-0-0------5h6h7-3b4p0-0-0-0-|

[Bridge] (cont.)
[Gtr.1 Electric w/Distortion]
Eb|-----------------------------------------------|
Bb|-----------------------------------------------|
Gb|-----------------------------------------------|
Db|-7h8h9------------------5h6h7------------------|
Ab|------7h8h9-5b6--------------5h6h7-3b4p0-0-0-0-|
Eb|----------------7-7-7-7------------------------|

[Bridge] (cont.)
[Gtr.1 Electric w/Distortion]
Eb|------------------------------------------------------------------|
Bb|------------------------------------------------------------------| Play
Gb|------------------------------------------------------------------| Twice
Db|-----------------5-6-7-------5~-------------------5-6-7-------5~--|
Ab|-----------3-4-5-------5-6-7----------------3-4-5-------5-6-7-----|
Eb|-0-0-1-2-3------------------------0-0-1-2-3-----------------------|

Gtr.1: Use Wah to
simulate cat cry.

[Chorus]

[Outro]
[Gtr.1 Electric w/Distortion]
Eb|-----------------------------------------------------|
Bb|-----------------------------------------------------| Play
Gb|-----------------------------------------------------| Twice
Db|-------9-7--7-7--------------------------------------|
Ab|-2-2---7-5--5-5--5-7-7-5-2--2-2---2-7--7-7-8-9-9-5-2-|
Eb|-0-0-3-----------3-5-5-3-0--0-0-3-0-5--5-5-6-7-7-3-0-|
<---> P.M.

King of the Kats еле нашёл!!!!!! Но нашёл !!!!
__________________
Is this the way I spend my day
Скорей бы убить себя!
Ответить с цитированием
  #35  
Старый 01.11.2005, 20:17
Аватара для Corwyn
Corwyn Corwyn вне форума
 
Регистрация: Aug 2005
Адрес: El Rancho
Возраст: 31
Сообщения: 424
Отправить сообщение для  Corwyn с помощью ICQ
По умолчанию

3. Chemical Addiction

[Intro]
[Gtr.1 Distorted Electric w/ Wah]
Eb|-----9\7-----7------|-----5\3-----3------|
Bb|-------------5------|-------------0------| Play
Gb|---9------7---------|---6------4---------| Twice
Db|--------------------|--------------------|
Ab|--------------------|-0------------------|
Eb|-0------------------|--------------------|

[1st Verse]
[Gtr.1 Distorted Electric w/ Wah]
Eb|--------9\7--7-|---------------|--------5\3--3-|-X----------X-X-|
Bb|---------------|---------------|---------------|-X-15-14h15-X-X-| Play
Gb|---------------|-/9--12p9------|---------------|-X-14-14----X-X-| Four
Db|---------------|-/9------------|---------------|-X-14-14----X-X-| Times
Ab|---------------|---------------|-0-------------|----------------|
Eb|-0-------------|---------------|---------------|----------------|
<->P.M. <->P.M.

[PreChorus 1]
[Gtr.1 Distorted Electric w/ Wah]
Eb|---------------|---------------|---------------|---------------|
Bb|---------------|---------------|---------------|---------------|
Gb|---------------|---------------|---------------|---------------|
Db|---------------|---------------|---------------|---------------|
Ab|---------------|---------------|---------------|---------------|
Eb|---------------|---------------|---------------|---------------|
"Get stoned daily survival in a war zone..."

[PreChorus 2]
[Gtr.1 Distorted Electric w/ Wah]
Eb|-------------------------|
Bb|-------------------------| Play
Gb|-------------------------| Five
Db|-------------------------| Times
Ab|-----------5-------------|
Eb|-0-3-5h6h7---7p6p5-6p5-3-|

[PreChorus 2] (cont.)
[Gtr.1 Distorted Electric w/ Wah]
Eb|-------------------------|-------------------------|
Bb|-------------------------|-------------------------|
Gb|-------------------------|-------------------------|
Db|-------------------------|-------------------------|
Ab|-----------5-----------7-|-------------------------|
Eb|-0-3-5h6h7---7p6p5-6p5---|-0-3-5h6h7---7p6p5-6p5-3-|

[PreChorus 2] (cont.)
[Gtr.1 Distorted Electric w/ Wah]
Eb|-------------------------|
Bb|-------------------------|
Gb|-------------------------|
Db|-------------------------|
Ab|-----------5-------------|
Eb|-0-3-5h6h7---7p6p5-6p5-0-|

[Chorus]
[Gtr.1 Distorted Electric w/ Wah]
Eb|---------------|---------------|---------------|---------------|
Bb|---------------|---------------|---------------|---------------| Play
Gb|---------------|---------------|---------------|---------------| Twice
Db|---------------|---------------|---------------|---------------|
Ab|---------------|---------------|---------------|---------------|
Eb|---------------|---------------|---------------|---------------|
"So high colors turn to sound..."

[1st Interlude]
[Gtr.1 Distorted Electric w/ Wah]
Eb|-----9\7-----7------|-----5\3-----3------|
Bb|-------------5------|-------------0------|
Gb|---9------7---------|---6------4---------|
Db|--------------------|--------------------|
Ab|--------------------|-0------------------|
Eb|-0------------------|--------------------|

[1st Interlude] (cont.)
[Gtr.1 Distorted Electric w/ Wah]
Eb|-----9\7-----7b9r7--|-----5\3-----3------|
Bb|-------------5------|-------------0------|
Gb|---9------7---------|---6------4---------|
Db|--------------------|--------------------|
Ab|--------------------|-0------------------|
Eb|-0------------------|--------------------|

[2nd Verse]
[Gtr.1 Distorted Electric w/ Wah]
Eb|--------9\7--7-|---------------|--------5\3--3-|-X----------X-X-|
Bb|---------------|---------------|---------------|-X-15-14h15-X-X-| Play
Gb|---------------|-/9--12p9------|---------------|-X-14-14----X-X-| Four
Db|---------------|-/9------------|---------------|-X-14-14----X-X-| Times
Ab|---------------|---------------|-0-------------|----------------|
Eb|-0-------------|---------------|---------------|----------------|
<->P.M. <->P.M.

[PreChorus 1]
[Gtr.1 Distorted Electric w/ Wah]
Eb|---------------|---------------|---------------|---------------|
Bb|---------------|---------------|---------------|---------------|
Gb|---------------|---------------|---------------|---------------|
Db|---------------|---------------|---------------|---------------|
Ab|---------------|---------------|---------------|---------------|
Eb|---------------|---------------|---------------|---------------|

[PreChorus 2]
[Gtr.1 Distorted Electric w/ Wah]
Eb|-------------------------|
Bb|-------------------------| Play
Gb|-------------------------| Five
Db|-------------------------| Times
Ab|-----------5-------------|
Eb|-0-3-5h6h7---7p6p5-6p5-3-|

[PreChorus 2] (cont.)
[Gtr.1 Distorted Electric w/ Wah]
Eb|-------------------------|-------------------------|
Bb|-------------------------|-------------------------|
Gb|-------------------------|-------------------------|
Db|-------------------------|-------------------------|
Ab|-----------5-----------7-|-------------------------|
Eb|-0-3-5h6h7---7p6p5-6p5---|-0-3-5h6h7---7p6p5-6p5-3-|

[PreChorus 2] (cont.)
[Gtr.1 Distorted Electric w/ Wah]
Eb|-------------------------|
Bb|-------------------------|
Gb|-------------------------|
Db|-------------------------|
Ab|-----------5-------------|
Eb|-0-3-5h6h7---7p6p5-6p5-0-|

[Chorus]
[Gtr.1 Distorted Electric w/ Wah]
Eb|---------------|---------------|---------------|---------------|
Bb|---------------|---------------|---------------|---------------| Play
Gb|---------------|---------------|---------------|---------------| Twice
Db|---------------|---------------|---------------|---------------|
Ab|---------------|---------------|---------------|---------------|
Eb|---------------|---------------|---------------|---------------|

[2nd Interlude]
[Gtr.1 Distorted Electric w/ Wah]
Eb|-----9\7-----7------|-----5\3-----3------|
Bb|-------------5------|-------------0------|
Gb|---9------7---------|---6------4---------|
Db|--------------------|--------------------|
Ab|--------------------|-0------------------|
Eb|-0------------------|--------------------|

[2nd Interlude] (cont.)
[Gtr.1 Distorted Electric w/ Wah]
Eb|-----9\7-----7w6r7--|-----5\3-----3------|
Bb|-------------5w4r5--|-------------0------|
Gb|---9------7---*-----|---6------4---------|
Db|--------------*-----|--------------------|
Ab|--------------*-----|-0------------------|
Eb|-0------------*-----|--------------------|

Gtr.1 : This represents a half step whammy bar drop and then a release back to the regular pitch.

[Solo / "Now Jerry Do Me Like This!!"]
[Gtr.1 Distorted Electric w/ Wah]
Eb|-(15)b17r15p12--12-12-12-------------------------------------------|
Bb|-* * * * *----------------15b17r15p12----------------12------------|
Gb|-----*--------------------------------14-14-12-------12-15b16r15p14|
Db|-----*-----------------------------------------12h14---------------|
Ab|-----*-------------------------------------------------------------|
Eb|-----*-------------------------------------------------------------|
Gtr.1 : Prebend from 15 to 17, then strike note and release to 15.

[Solo / "Now Jerry Do Me Like This!!"] (cont.)
[Gtr.1 Distorted Electric w/ Wah]
Eb|-----------------------X-X--15---*---------------------------------|
Bb|-----------------------X-X----15-*---------------------------------|
Gb|p12--12----------------X-X-------*---------------------------------|
Db|---14---14-X-12-X-14~--X-X-------*---------------------------------|
Ab|-----------------------X-X-------*---------------------------------|
Eb|---------------------------------*---------------------------------|
From this point, break on the solo. There's a lot more to it.

[Solo / "Now Jerry Do Me Like This!!"] (cont.)
[Gtr.1 Distorted Electric w/ Wah]
Eb|---------------|---------------|---------------|---------------|
Bb|---------------|---------------|---------------|---------------|
Gb|---------------|---------------|---------------|---------------|
Db|---------------|---------------|---------------|---------------|
Ab|---------------|---------------|---------------|---------------|
Eb|---------------|---------------|---------------|---------------|

[PreChorus 1]
[Gtr.1 Distorted Electric w/ Wah]
Eb|---------------|---------------|---------------|---------------|
Bb|---------------|---------------|---------------|---------------|
Gb|---------------|---------------|---------------|---------------|
Db|---------------|---------------|---------------|---------------|
Ab|---------------|---------------|---------------|---------------|
Eb|---------------|---------------|---------------|---------------|

[Outro]
[Gtr.1 Distorted Electric w/ Wah]
Eb|-----9\7-----7------|-----5\3-----3------|
Bb|-------------5------|-------------0------|
Gb|---9------7---------|---6------4---------|
Db|--------------------|--------------------|
Ab|--------------------|-0------------------|
Eb|-0------------------|--------------------|

[Outro] (cont.)
[Gtr.1 Distorted Electric w/ Wah]
Eb|-----9\7-----7b8r7--|-----5\3-----3------|
Bb|-------------5------|-------------0------|
Gb|---9------7---------|---6------4---------|
Db|--------------------|--------------------|
Ab|--------------------|-0------------------|
Eb|-0------------------|--------------------|
__________________
Is this the way I spend my day
Скорей бы убить себя!
Ответить с цитированием
  #36  
Старый 02.11.2005, 00:43
Аватара для Killer_is_me
Killer_is_me Killer_is_me вне форума
 
Регистрация: Sep 2005
Сообщения: 1,314
По умолчанию

Corwyn spasibo
__________________
Вхожу в мечеть. Час поздний и глухой. Не в жажде чуда я и не с мольбой. Когда-то коврик я стянул отсюда, Истёрся он; хочу стянуть другой.
Ответить с цитированием
  #37  
Старый 25.11.2005, 18:55
Аватара для Corwyn
Corwyn Corwyn вне форума
 
Регистрация: Aug 2005
Адрес: El Rancho
Возраст: 31
Сообщения: 424
Отправить сообщение для  Corwyn с помощью ICQ
По умолчанию

d-1p3--7-77-7777
a-1p3--7-77-7777
e-1----5-55-5555

Это Sludge Factory. Меня Прёт
__________________
Is this the way I spend my day
Скорей бы убить себя!
Ответить с цитированием
  #38  
Старый 09.12.2005, 22:43
Аватара для Corwyn
Corwyn Corwyn вне форума
 
Регистрация: Aug 2005
Адрес: El Rancho
Возраст: 31
Сообщения: 424
Отправить сообщение для  Corwyn с помощью ICQ
По умолчанию

Get Born Again

[Intro]
[Gtr.1 : Mildly Distorted Electric w/ Envelope Filter]
Eb|------------------------------------------------------------------|
Bb|-------0-----------------------------0----------------------------| Play
Gb|---4--------4-/5----4------4-/-7-\---------4-/-5----5---5---5-----| Three
Db|-2---2----2---/3--2---2--2---/-5-\-2---2-2---/-3--3---3---3---3\2-| Times
Ab|------------------------------------------------------------------|
Db|------------------------------------------------------------------|

[Intro] (cont.)
[Gtr.1 : Mildly Distorted Electric w/ Envelope Filter]
Eb|------------------------------------------------------------------|
Bb|-------0-----------------------------0----------------------------|
Gb|---4--------4-/5----4------4-/-7-\---------4-/-5------------------|
Db|-2---2----2---/3--2---2--2---/-5-\-2---2-2---/-3------------------|
Ab|------------------------------------------------------------------|
Db|------------------------------------------------------------------|
__________________
Is this the way I spend my day
Скорей бы убить себя!
Ответить с цитированием
  #39  
Старый 09.12.2005, 23:28
Аватара для Killer_is_me
Killer_is_me Killer_is_me вне форума
 
Регистрация: Sep 2005
Сообщения: 1,314
По умолчанию

не ну че за дела это же не раре((
__________________
Вхожу в мечеть. Час поздний и глухой. Не в жажде чуда я и не с мольбой. Когда-то коврик я стянул отсюда, Истёрся он; хочу стянуть другой.
Ответить с цитированием
  #40  
Старый 28.12.2005, 22:34
Аватара для Corwyn
Corwyn Corwyn вне форума
 
Регистрация: Aug 2005
Адрес: El Rancho
Возраст: 31
Сообщения: 424
Отправить сообщение для  Corwyn с помощью ICQ
По умолчанию

Song: Died
By: Alice In Chains
Tune: "Drop D"
Author: Eduardo Zulian (sifting@convoy.com.br)
Comment: Not a difficult song, but it's kinda hard to listen to the riff line.
In the 2 last Solos in the Pre-chorus appears a third guitar, witch i'm not able to understand.
Maybe in an upgrade.
For now, that's all. Thanks.

[Intro And Verse]

E |[----------------------------------------------------------------------------------------]|
B |[----------------------------------------------------------------------------------------]|
G |[-----12--10----10--7-7-------------------7--5-------------------------------------------]|
D |[--0--12--10----10--7-7----------------0--7--5------/7-----6-6--6-6--3-3--5--0-----------]|
A |[--0--10--8-----8---5-5------------5---0--5--3------/7--5--6-5--5-5--3-3--5--0---------3-]|
D |[--0---------0-----------0-0--5h7------0---------0--/7-----6-5--5-5--3-3--5--0--0--3h5---]|

[Second part of the intro]

E |[----------------------------------------------------------------------------------------]|
B |[----------------------------------------------------------------------------------------]|
G |[-----12--10----10--7-7-------------------7--5-------------------------------------------]|
D |[--0--12--10----10--7-7----------------0--7--5------/7-----6-6--6-6--3-3--5--0--5-5/6-5--]|
A |[--0--10--8-----8---5-5------------5---0--5--3------/7--5--6-5--5-5--3-3--5--0--5-5/6-5--]|
D |[--0---------0-----------0-0--5h7------0---------0--/7-----6-5--5-5--3-3--5--0--5 5/6 5--]|

[Riff in the Pre-Chorus]

E |[---------------------]|
B |[---------------------]|
G |[---------------------]|
D |[-3-3-3-3--6-6--2-2-2-]|
A |[-3-3-3-3--6-6--2-2-2-]|
D |[-3-3-3-3--6-6--2-2-2-]|
|=========PM==========|


[Solo in the Pre-Chorus]

E |[--5~~-8-7~~-5-4-5~~--8-7-4~~]|
B |[----------------------------]|
G |[----------------------------]|
D |[----------------------------]|
A |[----------------------------]|
D |[----------------------------]|

[Chorus (Riff) > Pretty hard to unterstand]

E |[-------------------]|
B |[-------------------]|
G |[-------------------]|
D |[-1-1--1~--------0~~]|
A |[-1-1--1~-----1--0~~]|
D |[-1-1--1~--/3----0~~]|
|=PM=|

[Chorus (Solo)]

E |[-------------5~~~---------------5^-]|
B |[--6^--6-4-3------3/4--6^--6-4-3----]|
G |[-----------------------------------]|
D |[-----------------------------------]|
A |[-----------------------------------]|
D |[-----------------------------------]|
__________________
Is this the way I spend my day
Скорей бы убить себя!
Ответить с цитированием
Ответ


Опции темы Поиск в этой теме
Поиск в этой теме:

Расширенный поиск
Опции просмотра

Ваши права в разделе
Вы не можете создавать темы
Вы не можете отвечать на сообщения
Вы не можете прикреплять файлы
Вы не можете редактировать сообщения

vB-коды Вкл.
[IMG] код Вкл.
HTML код Выкл.
Быстрый переход

Похожие темы
Тема Автор Раздел Ответов Последнее сообщение
Список всех раритетных песен Nirvana Snaz Nirvana 19 30.07.2008 13:21
Смысл песен Nirvana Nev Nirvana 166 26.06.2008 23:22
Переводы песен группы NIRVANA Ogg Nirvana 7 07.04.2008 00:51
Smells Like... версии песен skynotcry Nirvana 10 24.11.2007 23:31
Последние Дни "Death To Birth" - Текст, аккорды песни. МихаGrunge Курт Кобейн 25 29.10.2007 11:45


Часовой пояс GMT +4, время: 18:06.

Обратная связь | Kurt Cobain [ru] | КПК | Вверх


Яндекс цитирования хостинг от .masterhost Rambler's Top100