Гранж форум | Kurt Cobain [ru]

Гранж форум | Kurt Cobain [ru] (http://www.kurtcobain.ru/forum/index.php)
-   Nirvana (http://www.kurtcobain.ru/forum/forumdisplay.php?f=10)
-   -   Редкие и неизданные песни Nirvana (http://www.kurtcobain.ru/forum/showthread.php?t=30)

Jonn 31.08.2005 01:11

Цитата:
Сообщение от SOAP
Opinion
Verse Chorus Verse
есть такая песня Puss?

Puss-это совместно с группой The Jesus Lizard,я ее тоже только на кассете встречал , но песня прикольная

Jonn 31.08.2005 01:14

еще мне нравяться D-7, Return of the rat, Mrs. Butterworth

Кучер 31.08.2005 01:23

последняя классная

Corwyn 01.09.2005 13:41

Nirvana
Fecal matter demo tape (mega rare)

Tracks:

1. sound of dentage
2. class of 86
3. lamintaed effect
4. spank thru
5. blathers log
6. downer
7. buffys preganant
8. instramental

1. sound of dentage

intro:

e|------------------|
b|------------------|
g|--------------10--| Play all notes as harmonics
d|--------8---------|
a|--6--4-----7------|
e|------------------|

Verse:

(just bass)

g|--------0-----|
d|-----------3--|
a|-----3--------|
e|--1-----------|

chorus:

e|--------------------------|
b|--------------------------|
g|--2--2--------------------|
d|--2--2--------------------|
a|--0--0--5--5--5--9--9--9--|
e|--------3--3--3--7--7--7--|

2. class of 86

intro/verse:

e|--------x--1----------------------|
b|-----1--x-----2-------------------|
g|-----0--x--------0----------------|
d|--2--2--x-------------------------|
a|--2--3--x-----------6-6-6-6-6-6-6-|
e|--2--0--x-----------4-4-4-4-4-4-4-|

chorus:

e|--------|
b|--------|
g|--------|
d|--5--7--|
a|--5--7--|
e|--3--5--|

3. lamintaed effect (just bass)

(verse)
g|----------------------
d|----------------------
a|---------------5-8-7-7 (sometimes the 8 is a 7)
e|-0-0-0-4-5-6-7--------

(chorus)
g|-----------------------------------------------
d|------------------------------------------------
a|-7-7-7-5-7---------------7-7-7-5-7--5-4-4/-2-2-2
e|------------7-7-7-5-7---------------------------

(ending)
g|------------------
d|------------------
a|---------------5-7
e|-0-0-0-4-5-6-7----

verse 12x
chorus 2x
verse 4x
chorus 2x
verse 8x
open E (with beat)
chorus 2x
verse 3x
ending

4. spank thru
__________________________________________

5. blathers log

drop d

main riff
e|-----------------------------------|
b|-----------------------------------|
g|-----------------------------------|
d|-----------------------------------|
a|--0-0-0-0---------2-2-2-2----------|
d|----------3-3-3-3---------0-0-1-1--|

chorus

e|--------------------------|
b|--------------------------|
g|--------------------------|
d|--4--7--5--5--5--4--3-11--|
a|--2--5--3--3--3--2--1--9--|
d|--------------------------|

solo

e|--------4-/-(7)------19--18--15-/-(12)--------------------20--|
b|-----6-----------13---------------------0------14-/-(17)--^^--|
g|--3--------------^^------------------------11-----------------|
d|--------------------------------------------------------------|
a|--------------------------------------------------------------|
d|--------------------------------------------------------------|

6. downer
_______________________________________

7. buffys preganant

Basic Riff - (play it half assed to make it sound authentically messed up) :)

e |--------------------------------------------|
B |--------------------------------------------|
G |-------(5)---------(5)-------(5)---------(5)|
D |---8----5------8----5---8-----5------8----5-|
A |----8--(7)------8--7-----8---(7)------8--7--|
E |-6----0----6-6----0---6-----0----6-6----0---|
Then Play

e |----------------------|
B |----------------------|
G |----x--------x--------|
D |----x--------x--------|
A |---(8)\(7)--(8)--(7)--|
E |-6-(6)--0-0--6-6--0-0-|

Then the Basic riff again:

e |--------------------------------------------|
B |--------------------------------------------|
G |-------(5)---------(5)-------(5)---------(5)|
D |---8----5------8----5---8-----5------8----5-|
A |----8--(7)------8--7-----8---(7)------8--7--|
E |-6----0----6-6----0---6-----0----6-6----0---|
Then The Chorus is:

e|-----------------------------|
B|-----------------------------|
G|-10------9--9----9----8----7-|
D|-10------10-10---9----8----7-|
A|-----------------------------|
E|-----------------------------|


Then the Basic riff AGAIN:

e |--------------------------------------------|
B |--------------------------------------------|
G |--------------------------------------------|
D |---8----5------8----5---8-----5------8----5-|
A |----8---7-------8--7-----8----7-------8--7--|
E |-6----0----6-6----0---6-----0----6-6----0---|

Then Play

e |----------------------|
B |----------------------|
G |----x--------x--------|
D |----x--------x--------|
A |----x--------x--------|
E |-6-(6)--0-0--6-6--0-0-|

Then the 2nd chorus is just
e|---------------------------------------------------------------------------
B|---------------------------------------------------------------------------
G|-7------5----5--5-5-5-5-5-5-4-4-4-4-3-3-3-3-5--5-5-4-4-4-4-3-3-3-3-3-3-3-4-
D|-7------6--5-5--5-5-5-5-5-5-4-4-4-4-3-3-3-3-5--5-5-4-4-4-4-3-3-3-3-3-3-3-4-
A|-------------5--5-5-5-5-5-5-4-4-4-4-3-3-3-3-5--5-5-4-4-4-4-3-3-3-3-3-3-3-3-
E|---------------------------------------------------------------------------
More.........
e|------------------------------------------------------------------|
B|------------------------------------------------------------------|
G|-5--5-5-4-4-4-4-3-3-3-3-3-3-3-4-5--5-5-4-4-4-4-3-3-3-3-3-3-3-3----|
D|-5--5-5-4-4-4-4-3-3-3-3-3-3-3-4-5--5-5-4-4-4-4-3-3-3-3-3-3-3-3----|
A|-5--5-5-4-4-4-4-3-3-3-3-3-3-3-3-5--5-5-4-4-4-4-3-3-3-3-3-3-3-3----|
E|------------------------------------------------------------------|

Then The 1st solo is (the eighteenth fret not one eight one eight)
(*play the B string randomly at the same time as the e)

e |-2/18-16-16-16-18-16-16-16-18-16-16-18-16-16-14-12\11-------------|
B*|-2/18-16-16-16-18-16-16-16-18-16-16-18-16-16-14-12\11-------------|
G |-2/18-------------------------------------------------------------|
D |------------------------------------------------------------------|
A |------------------------------------------------------------------|
E |------------------------------------------------------------------|

There's More......

e|-x-x-x-12\9-/18^-15\14---------------------------------------|
B|----------------------11-14----------------------------------|
G|---------------------------11--------------------------------|
D|-----------------------------11------------------------------|
A|-------------------------------13\11\9\7---------------------|
E|----------------------------------------6--------------------|

8. instramental

drop d

~~~ = vibrato
x/x = pick scrape
PM = palm mute
) = unison bend
)

INTRO
|-----------------------------|
|-----------------------------|
|-0-0-0-0-0-0-0-0-------------| play this figure
|-0-0-0-0-0-0-0-0-------------| 4x
|-0-0-0-0-0-0-0-0-------------|
|-0-0-0-0-0-0-0-0-------------|
PM------------------------|
1/4
)
|-------------|-------------|-14)~~~~~|-14-----------------|
|-------------|-------------|-14------|-14-----------------|
|-----0-0-0-0-|-----0-0-0-0-|---------|----0-0-0-0-0-0-0---|
|-x/x-0-0-0-0-|-x/x-0-0-0-0-|---------|----0-0-0-0-0-0-0---|
|-----0-0-0-0-|-----0-0-0-0-|---------|----0-0-0-0-0-0-0---|
|-----0-0-0-0-|-----0-0-0-0-|---------|----0-0-0-0-0-0-0---|
PM----| PM----| PM--------------|

3/4 1/4
) )
|-13)~~~~~|-13---------------|-15)~~~~~|-15-----------------|
|-13------|-13---------------|-15------|-15-----------------|
|---------|----0-0-0-0-0-0-0-|---------|----0-0-0-0-0-0-0---|
|---------|----0-0-0-0-0-0-0-|---------|----0-0-0-0-0-0-0---|
|---------|----0-0-0-0-0-0-0-|---------|----0-0-0-0-0-0-0---|
|---------|----0-0-0-0-0-0-0-|---------|----0-0-0-0-0-0-0---|
PM----------| PM--------------|
1/4
)
|-16)~~~~~|~~~~~|
|-16------|-----|
|---------|-----|
|---------|-----|
|---------|-----|
|---------|-----|

VERSE
1/2 1/2 1/2 1/2
) ) ) )
|---------14)-|---------12)-|---------12)-|---------15)-|
|---------14--|---------12--|---------12--|---------15--|
|-0-0-0-0-----|-0-0-0-0-----|-0-0-0-0-----|-0-0-0-0-----|
|-0-0-0-0-----|-0-0-0-0-----|-0-0-0-0-----|-0-0-0-0-----|
|-0-0-0-0-----|-0-0-0-0-----|-0-0-0-0-----|-0-0-0-0-----|
|-0-0-0-0-----|-0-0-0-0-----|-0-0-0-0-----|-0-0-0-0-----|
1/2 1/2 1/2 1/2
) ) ) )
|---------13)-|---------11)-|---------14)-|---------14)-|
|---------13--|---------11--|---------14--|---------14--|
|-0-0-0-0-----|-0-0-0-0-----|-0-0-0-0-----|-0-0-0-0-----|
|-0-0-0-0-----|-0-0-0-0-----|-0-0-0-0-----|-0-0-0-0-----|
|-0-0-0-0-----|-0-0-0-0-----|-0-0-0-0-----|-0-0-0-0-----|
|-0-0-0-0-----|-0-0-0-0-----|-0-0-0-0-----|-0-0-0-0-----|

CHORUS
|------------|------------|-----------|------------|
|------------|------------|-----------|------------|
|------------|------------|---5-------|------------|
|----5---5---|----4---4---|-------5---|----4---4---|
|-3----3---3-|-2----2---2-|-3---3---5-|-2----2---2-|
|------------|------------|-----------|------------|

Venetian 01.09.2005 21:21

с каких это пор downer в mega rare?

Кучер 01.09.2005 23:12

ну и шо эта за песдец? нахера здесь табы?

Corwyn 03.09.2005 00:01

http://jimspirit.narod.ru/mp3/Nirva...d_The_Doors.rar

Кучер 03.09.2005 00:31

ну эта мы слышали :)

shustriy 03.09.2005 02:03

кто и что может сказать о первом джеме, сыгранном в Буэнос Айрес?
хотя бы название..

Кучер 03.09.2005 02:24

дату скажи


Часовой пояс GMT +4, время: 01:39.

Powered by: vBulletin Version 3.0.7 (Russian)
Copyright ©2000 - 2020, Jelsoft Enterprises Ltd.